Trocadero

Return

Trocadero

tabs

by  PAULLET3

save to print version add songbook text version e-mail correct tuner
chordsukulelecavacokeyboardtabbassdrumsharmonicaflute Guitar Pro
close

there isn't a video lesson for this song

chords

Return

	  		Main Part 

(Very slightly palm-muted) 

E|-----------------| 
B|-----------------| 
G|-----------------| 
D|------------2----| 
A|-0--3-0-3-5----0-| 
E|-----------------|  x7  


Then on 8th this is played:  

E|-----------------| 
B|-----------------| 
G|-----------------| 
D|------------2--5-| 
A|-0--3-0-3-5------| 
E|-----------------| 


Then back to this:  

E|-----------------| 
B|-----------------| 
G|-----------------| 
D|------------2----| 
A|-0--3-0-3-5----0-| 
E|-----------------|  x8  


Outro 

E|---------------------| 
B|-----------3h4h5-----| 
G|-12/2--5-2--------2--| 
D|---------------------| 
A|---------------------| 
E|---------------------|  

E|---------------5-----| 
B|--------3h4h5--------| 
G|-2--5-2--------------| 
D|---------------------| 
A|---------------------| 
E|---------------------|  

E|---------------------| 
B|--------3h4h5--------| 
G|-2--5-2--------2-----| 
D|---------------------| 
A|---------------------| 
E|---------------------| 

E|---------------1-----| 
B|--------3h4h5--------| 
G|-2--5-2--------------| 
D|---------------------| 
A|---------------------| 
E|---------------------|  

E|---------------------| 
B|--------3h4h5--------| 
G|-2--5-2--------2-----| 
D|---------------------| 
A|---------------------| 
E|---------------------| 

E|-----------------5-----| 
B|--------3-h4-h5--------| 
G|-2--5-2----------------| 
D|-----------------------| 
A|-----------------------| 
E|-----------------------| 

E|---------------5v----| 
B|--------3h4h5--------| 
G|-2--5-2--------------| 
D|---------------------| 
A|---------------------| 
E|---------------------| 

E|-3-5--3-5~-------------| 
B|------------1-3--1-3~--| 
G|-----------------------| 
D|-----------------------| 
A|-----------------------| 
E|-----------------------|  

E|---------------------| 
B|--------3h4h5--------| 
G|-2--5-2--------2-----| 
D|---------------------| 
A|---------------------| 
E|---------------------| 



****************************************** 

/   Slide down  
h   Hammer on  
~   Slide off   
v   Vibrato 

****************************************** 
		  

See also:

tabs Deep Purple - Burn tabs Deep Purple - Lazy tabs Deep Purple - Deep Purple - Smoke On The Water tabs Deep Purple - Stormbringer tabs Deep Purple - Demon's Eye tabs Albert Hammond Jr - Holiday
e-chords

Other versions:

tabs Powderfinger - (Return Of) The Electric Horseman tabs Sungha Jung - Return tabs Trocadero - Return tabs Bolt Thrower - Return From Chaos tabs Misfits - Return Of The Fly tabs Genesis - Return Of The Giant
auto scroll beats size up size down change color hide chords drawings
tab show chords e-chords YouTube Clip e-chords hide all tabs e-chords go to top tab

share