Trocadero

People Person

Trocadero

chords

by  HEBEALMEIDA

save to print version add songbook text version e-mail correct tuner
chordsukulelecavacokeyboardtabbassdrumsharmonicaflute Guitar Pro
close

there isn't a video lesson for this song

chords

People Person

	  		
  (0:00) 
e|-----------------|-----------------| 
b|-----------------|-----------------| 
g|-----------------|-----------------| 
d|-----0---3-2-0-2-|--0-2-0---0------| 
a|---0---0---------|-----------------| 
d|-0---------------|-------------3-2-| 

  (0:05)       
e|-----------------|-----------------|-----------------|-----------------| 
b|-----------------|-----------------|-----------------|-----------------| 
g|-----------------|-----------------|-----------------|-----------------| 
d|-----0-------0---|-----0-------0---|-----0-------0---|-----0-------0---| 
a|---0---0---0---0-|---0---0---0---0-|---0---0---0---0-|---0---0---0---0-| 
d|-0-------0-------|-0-------3-------|-2-------2-------|-0-------0-------| 

  (0:15) 
e|-----------------|-----------------|-----------------| 
b|-----------------|-----------------|-----------------| 
g|---------2-0---0-|---------2-0---0-|---------2-0---0-| 
d|---0-2-0-----3---|---0-2-0-----3---|---0-2-0-----3---| 
a|-1---------------|-1---------------|-1---------------| 
d|-----------------|-----------------|-----------------| 

  (0:22) 
e|-----------------|-----------------| 
b|-----------------|-----------------| 
g|-----------------|-----------------| 
d|-----0---3-2-0-2-|--0-2-0---0------| 
a|---0---0---------|-----------------| 
d|-0---------------|-------------3-2-| 

  (0:27) 
e|-----------------|-----------------|-----------------|-----------------|-----------------|-----------------| 
b|-----------------|-----------------|-----------------|-----------------|-----------------|-----------------| 
g|-----------------|-----------------|-----------------|-----------------|-----------------|-----------------| 
d|-----0---3-2-0-2-|-0-2-0-------0---|-----0---3-2-0-2-|-0-2-0-------0---|-----0-------0---|-----0-------0---| 
a|---0---0---------|-----------0---0-|---0---0---------|-----------0---0-|---0---0---0---0-|---0---0---0---0-| 
d|-0---------------|---------0-------|-0---------------|---------5-------|-3-------0-------|-0-------0-------| 

  (0:41) 
e|-----------------|-----------------|-----------------|-------------------| 
b|-----------------|-----------------|-----------------|-------------------| 
g|-----------------|-----------------|-----------------|-------------------| 
d|-----0---3-2-0-2-|-----0---3-2-0-2-|-----0---3-2-0-2-|--2---0---3-2-0-2--| 
a|---0---0---------|---0---0---------|---0---0---------|----0---0----------| 
d|-0---------------|-0---------------|-2---------------|-------------------| 

  (0:51) 
e|-----------------|-----------------|-----------------|-------------------| 
b|-----------------|-----------------|-----------------|-------------------| 
g|---------2-0---0-|---------2-0---0-|-----------------|-------------------| 
d|---0-2-0-----3---|---0-2-0-----3---|-4---------------|-----0-------------| 
a|-1---------------|-1---------------|-----------------|-------------------| 
d|-----------------|-----------------|-----------------|-------------------| 
		  

See also:

chords Deep Purple - Smoke on the water chords Scalene - Surreal chords Ira! - Flores em VocÍ chords Deep Purple - Lazy/new chords chords Ira! - Tolices chords Ira! - Dias de Luta
e-chords

Other versions:

chords Trocadero - People Person
auto scroll beats size up size down change color hide chords simplify chords drawings columns
tab show chords e-chords YouTube Clip e-chords hide all tabs e-chords go to top tab

share