Trazendo a Arca

home > Trazendo a Arca

Pra Tocar No Manto - Solo Tab

Trazendo a Arca

Difficulty: BeginnerBeginner

by iva%2E%2E%2E

tuner correct add songbook print version text version save to e-mail
chordsukulelecavacokeyboardtabbassdrumsharmonicsflute Guitar Pro
chords

Pra Tocar No Manto - Solo

  		      H          H             S   S   H        Q     H             
E||------------------------|--------------------------------------| 
B||------------------------|--10h-12h-13-------------12brb--------| 
G||--12b--------14b--------|--------------------------------------| 
D||------------------------|--------------------------------------| 
A||------------------------|--------------------------------------| 
E||------------------------|--------------------------------------| 


  H         S   S   H            S   S   H           Q     S   S    
-----------------------------|------------------------------------| 
-----------12h-13h-15--------|--13h-15h-15brb-------------15h-17h-| 
-----------------------------|------------------------------------| 
-----------------------------|------------------------------------| 
-----------------------------|------------------------------------| 
-----------------------------|------------------------------------| 


                                       3    3                                 
   Q     E   T   T  Q       Q          E    E  S  E     S  H         S   S    
--------15-------------------------|----------------------------------------| 
--18--------15h-17-15br----15br----|--13h--15----15br--13-15--------13p-12p-| 
-----------------------------------|----------------------------------------| 
-----------------------------------|----------------------------------------| 
-----------------------------------|----------------------------------------| 
-----------------------------------|----------------------------------------| 


   H         T   T   S  E   T  T  T S  T  T  T   
-----------------------------------------------| 
--10--------12h-13p-12/----13-12-10-9-10-12-10-| 
-----------------------------------------------| 
-----------------------------------------------| 
-----------------------------------------------| 
-----------------------------------------------| 


  S  T T  T  S T  E  T Q     H         H            H         H           
----------------------------15b-----------------|--15-------------------| 
--9---------------------------------------------|------------15b--------| 
----10-9----------------------------------------|-----------------------| 
---------12-10-9--------------------------------|-----------------------| 
-----------------12-----------------------------|-----------------------| 
------------------------------------------------|-----------------------| 


   S   S  Q       E   E   Q       Q        H         S   S   H          
---------------------13----------------|------------------------------| 
--13h-15-15brb-----------15br----15----|--13--------15h-17h-18--------| 
---------------------------------------|------------------------------| 
---------------------------------------|------------------------------| 
---------------------------------------|------------------------------| 
---------------------------------------|------------------------------| 


   E   Q     S  S  H            H           S   S   W                  
--15------------------------|----------------------------------------| 
------17----17-15-13--------|--15br--------13p-12p-10----------------| 
----------------------------|----------------------------------------| 
----------------------------|----------------------------------------| 
----------------------------|----------------------------------------| 
----------------------------|----------------------------------------| 


  H         T  T  T  T  T  T  T  T  T  T  T  T  T  T  T  T   
-----------------------------------------------------------| 
-----------------------------------------------------17-18-| 
--------------------------------16-17-19-17-16-17-19-------| 
-----------15-17-19-17-15-17-19----------------------------| 
-----------------------------------------------------------| 
-----------------------------------------------------------| 


   T  T  T  T  T T  T  T  T  T  T  T  T  W                               
-------------------17-19-20-19-17-19-20-22b----------------|-----------| 
--20-18-17-18-20-------------------------------------------|-----------| 
-----------------------------------------------------------|-----------| 
-----------------------------------------------------------|-----------| 
-----------------------------------------------------------|-----------| 
-----------------------------------------------------------|-----------| 


-----------|| 
-----------|| 
-----------|| 
-----------|| 
-----------|| 
-----------|| 
	  

Search Paypal
auto scroll beats size up size down change color hide chords drawings
tab show chords e-chords YouTube Clip e-chords hide all tabs e-chords go to top tab