Traditional Irish

Irish Jigs

Traditional Irish

tabs

by  UBIRBOMFIM

save to print version add songbook text version e-mail correct tuner
chordsukulelecavacokeyboardtabbassdrumsharmonicaflute Guitar Pro
close

there isn't a video lesson for this song

chords

Irish Jigs

	  		

Tuning: standard e B G D A E 
THESE FOUR IRISH JIGS... "TRIPPING UP STAIRS", "KESH JIG", "MORRISON'S JIG" CAN BE PLAYED IN ELECTRIC  
OR ACOUSTIC PERSONALLY I PREFER TO PLAY THESE FOUR RIFFS IN ELECTRIC, EXPERIENCED GUITAR PLAYERS ADD  
IN YOUR OWN RIFFS!!  
IT WILL MAKE IT SOUND AWESOME! ALL OF THESE RIFFS ARE MEANT TO BE PLAYED IN A FAST TEMPO! USE SOME BENDS,  
PULL OFFS AND HAMMER ONES TOO WITH SOME HARMONICS!  
THESE ARE MY FAVORITE RIFFS TO PRACTICE WITH... EXPERIMENT YOU WILL SEE WHAT I MEAN.    

TRIPPING UP STAIRS 
riff 1 
e|--------------------2-0-----------2-0--------------------------------------| 
B|------------0-0--3-3---3-2-0-2-0-3----3------------------------------------| 
G|-2-0--2-2-0----2--------------2--------2-0---------------------------------| 
D|-----4---------------------------------------------------------------------| 
A|---------------------------------------------------------------------------| 
E|---------------------------------------------------------------------------| 

riff 2 
e|-------------------2-0-----------------2-0---------------------------------| 
B|---------0-0---3-3-----3-2-0-2---0-2-3-----3-------------------------------| 
G|---2-2-0-----2-----------------2-------------------------------------------| 
D|-4-------------------------------------------------------------------------| 
A|---------------------------------------------------------------------------| 
E|---------------------------------------------------------------------------| 

riff 3 
e|-----------2-----2-3-2-2-0---------0-----0-2-0-0----------------------| 
B|-0-2-3-0-0---0-0-----------3-2-------------------3-2------------------| 
G|-------------------------------2-2---2-2------------------------------| 
D|----------------------------------------------------------------------| 
A|----------------------------------------------------------------------| 
E|----------------------------------------------------------------------| 

RIFF 4  
e|-------2-----2-3-2-2-0-----------------2-0-3----------------------| 
B|-3-0-0---0-0-----------3-2-0-2---0-2-3----------------------------| 
G|-------------------------------2----------------------------------| 
D|------------------------------------------------------------------| 
A|------------------------------------------------------------------| 
E|------------------------------------------------------------------| 

"KESH JIG"  
RIFF 1 
e|------------------------0-----3-----0-----------------------------------| 
B|-------------0------0-3---3-3---3-3---3-0-3-0---------------------------| 
G|---0---0-0-2---2--2---------------------------2-------------------------| 
D|-0---4------------------------------------------------------------------| 
A|------------------------------------------------------------------------| 
E|------------------------------------------------------------------------| 

RIFF 2 
e|-------------------------0-----3-------------------------------------------| 
B|-----------0---0-----0-3---3-3---3-0---------------------------------------| 
G|-0---0-0-2---2---2-2-----------------2-0---0-------------------------------| 
D|---4-------------------------------------4---------------------------------| 
A|---------------------------------------------------------------------------| 
E|---------------------------------------------------------------------------| 

RIFF 3 
e|---------------0-3-0-------------------------------------------------------| 
B|---0---0-3-0-3-------3-0---0---0-3-0-----0---------------------------------| 
G|-2---2-------------------0---2-------0-2---2-2-0-2-------------------------| 
D|---------------------------------------------------------------------------| 
A|---------------------------------------------------------------------------| 
E|---------------------------------------------------------------------------| 

RIFF 4 
e|-------------0-3-0-------3-2-3-5-3-5-7-3-3-3----------------------------| 
B|-0---0-3-0-3-------3-0-3------------------------------------------------| 
G|---2--------------------------------------------------------------------| 
D|------------------------------------------------------------------------| 
A|------------------------------------------------------------------------| 
E|------------------------------------------------------------------------| 

MORRISON'S JIG  
RIFF 1 
e|---------------------------------------------------------------------------| 
B|---0--0---0------------0---0--4-2-0----------------------------------------| 
G|--------------2---------------------2--------------------------------------| 
D|-2--2---2---2---4-1-2----2------------4-1----------------------------------| 
A|---------------------------------------------------------------------------| 
E|---------------------------------------------------------------------------| 

RIFF 2 
e|---------------------------------------------------------------------------| 
B|----0---0---0-----------------0--------------------------------------------| 
G|----------------2-----1---1-2---2-1----------------------------------------| 
D|-2----2---2---2---4-1---4-----------4-2-1----------------------------------| 
A|---------------------------------------------------------------------------| 
E|---------------------------------------------------------------------------| 

RIFF 3 
e|---0-0-2-0-0-5-0-0-2-0----0-0-2-0-0-2-5-4-2-0------------------------------| 
B|-0---------------------4-0--------------------4----------------------------| 
G|---------------------------------------------------------------------------| 
D|---------------------------------------------------------------------------| 
A|---------------------------------------------------------------------------| 
E|---------------------------------------------------------------------------| 

RIFF 4 
e|---0-0-2-0-0-5-0-0-2-0--4-2-0----------------------------------------------| 
B|-0---------------------4------4---0----------------------------------------| 
G|--------------------------------2---2-1------------------------------------| 
D|----------------------------------------4-2-1------------------------------| 
A|---------------------------------------------------------------------------| 
E|---------------------------------------------------------------------------| 

RIFF 5  
e|---0-0-2-0-0-5-0-0-2-0----0-0-2-0-0-2-5-2---0-2----------------------------| 
B|-0---------------------4-0----------------4--------------------------------| 
G|---------------------------------------------------------------------------| 
D|---------------------------------------------------------------------------| 
A|---------------------------------------------------------------------------| 
E|---------------------------------------------------------------------------| 




************************************ 

| /   slide up 
| \   slide down 
| h   hammer-on 
| p   pull-off 
| ~   vibrato 
| +   harmonic 
| x   Mute note 
| b   Bend 
| pb  Pre-bend 
| br  Bend release 
| pbr Pre-bend release 
| brb Bend release bend 

************************************ 
		  

Full key step upFull key step up
Half key step upHalf key step up
Half key step downHalf key step down
Full key step downFull key step down
hide glossary

See also:

tabs Thin Lizzy - Are You Ready (Live) tabs U2 - Walk To The Water tabs U2 - sunday boody sunday tabs U2 - The fly(ver.2) tabs U2 - Holde me, Thrill me, Kiss me, Kill me tabs U2 - Please (live acoustic)
e-chords

Other versions:

tabs Traditional Irish - Irish Jigs
auto scroll beats size up size down change color hide chords drawings
tab show chords e-chords YouTube Clip e-chords hide all tabs e-chords go to top tab

share