Tomasz Organek

Kate Moss

Tomasz Organek

tabs

by  LUCICAMARGO

save to print version add songbook text version e-mail correct tuner
chordsukulelecavacokeyboardtabbassdrumsharmonicaflute Guitar Pro
close

there isn't a video lesson for this song

chords

Kate Moss

	  		

Intro 

po kazdym uderzeniu nalezy tlumic  

e|-----------------| 
B|-----------------| 
G|-9-9-9-9-9-8-7-8-| 
D|-9-9-9-9-9-8-7-8-| 
A|-7-7-7-7-7-6-5-6-|  
E|-----------------|   x2 



Verse 
po kazdym uderzeniu nalezy tlumic tak jak w intrze 

e|-----------------|-----------------| 
B|-----------------|-----------------| 
G|-9-9-9-9-9-8-7-8-|-7-7-7-7-7-8-7-8-| 
D|-9-9-9-9-9-8-7-8-|-7-7-7-7-7-8-7-8-| 
A|-7-7-7-7-7-6-5-6-|-5-5-5-5-5-6-5-6-|  
E|-----------------|-----------------| 

e|-----------------|-----------------| 
B|-----------------|-----------------| 
G|-6-6-6-6-6-8-7-8-|-9-9-9-9-9-8-7-8-| 
D|-7-7-7-7-7-8-7-8-|-9-9-9-9-9-8-7-8-| 
A|-7-7-7-7-7-6-5-6-|-7-7-7-7-7-6-5-6-|  
E|-x-x-x-x-x-------|-----------------|      

e|-----------------|-----------------| 
B|-----------------|-----------------| 
G|-9-9-9-9-9-8-7-8-|-7-7-7-7-7-8-7-8-| 
D|-9-9-9-9-9-8-7-8-|-7-7-7-7-7-8-7-8-| 
A|-7-7-7-7-7-6-5-6-|-5-5-5-5-5-6-5-6-|  
E|-----------------|-----------------| 

e|-----------------|-----------------| 
B|-----------------|-----------------| 
G|-6-6-6-6-6-8-7-8-|-9---------------| 
D|-7-7-7-7-7-8-7-8-|-9---------------| 
A|-7-7-7-7-7-6-5-6-|-7---------------| 
E|-x-x-x-x-x-------|-----------------|  


Chorus 


e|-----------------|-----------------| 
B|-----------------|-----------------| 
G|-9-9-9-9-7-7-7-7-|-b3--b3--b3--b3--| 
D|-9-9-9-9-7-7-7-7-|-----------------| 
A|-7-7-7-7-5-5-5-5-|-----------------| 
E|-----------------|-----------------|    x2 


 teraz z tlumieniem po kazdym uderzeniu 

e|---------------------------------| 
B|---------------------------------| 
G|-9-9-9-9-9-9-9-9-7-7-7-7-7-7-7-7-| 
D|-9-9-9-9-9-9-9-9-7-7-7-7-7-7-7-7-| 
A|-7-7-7-7-7-7-7-7-5-5-5-5-5-5-5-5-|  
E|---------------------------------| 

teraz jak w refrenie bez tlumienia  

e|-----------------| 
B|-----------------| 
G|-9-9-9-9-7-7-7-7-| 
D|-9-9-9-9-7-7-7-7-| 
A|-7-7-7-7-5-5-5-5-| 
E|-----------------| 

i cos w rodzaju mostka/malej solówki 

uwaga to prawdopodobnie nie jest idealnie ale brzmi nawet dobrze :p 

e|----------------| 
B|----------------| 
G|----------------| 
D|7-77-7b-7b-77p5-| 
A|---------------7| 
E|----------------| x4 



po refrenie: 

e|-----------------|-----------------| 
B|-----------------|-----------------| 
G|-x-x-x-x-x-8-7-8-|-9-x-x-x-x-8-7-8-| 
D|-x-x-x-x-x-8-7-8-|-9-x-x-x-x-8-7-8-| 
A|-x-x-x-x-x-6-5-6-|-7-x-x-x-x-6-5-6-|  
E|-----------------|-----------------| 


Verse 

e|-----------------| 
B|-----------------| 
G|-7-7-7-7-7-8-7-8-| 
D|-7-7-7-7-7-8-7-8-| 
A|-5-5-5-5-5-6-5-6-|  
E|-----------------| 

e|-----------------|-----------------| 
B|-----------------|-----------------| 
G|-6-6-6-6-6-8-7-8-|-9-9-9-9-9-8-7-8-| 
D|-7-7-7-7-7-8-7-8-|-9-9-9-9-9-8-7-8-| 
A|-7-7-7-7-7-6-5-6-|-7-7-7-7-7-6-5-6-|  
E|-x-x-x-x-x-------|-----------------|      

e|-----------------|-----------------| 
B|-----------------|-----------------| 
G|-9-9-9-9-9-8-7-8-|-7-7-7-7-7-8-7-8-| 
D|-9-9-9-9-9-8-7-8-|-7-7-7-7-7-8-7-8-| 
A|-7-7-7-7-7-6-5-6-|-5-5-5-5-5-6-5-6-|  
E|-----------------|-----------------| 

e|-----------------|-----------------| 
B|-----------------|-----------------| 
G|-6-6-6-6-6-8-7-8-|-9---------------| 
D|-7-7-7-7-7-8-7-8-|-9---------------| 
A|-7-7-7-7-7-6-5-6-|-7---------------| 
E|-x-x-x-x-x-------|-----------------|  



Chorus 


e|-----------------|-----------------| 
B|-----------------|-----------------| 
G|-9-9-9-9-7-7-7-7-|-b3--b3--b3--b3--| 
D|-9-9-9-9-7-7-7-7-|-----------------| 
A|-7-7-7-7-5-5-5-5-|-----------------| 
E|-----------------|-----------------|    x2 


 teraz z tlumieniem po kazdym uderzeniu 

e|---------------------------------| 
B|---------------------------------| 
G|-9-9-9-9-9-9-9-9-7-7-7-7-7-7-7-7-| 
D|-9-9-9-9-9-9-9-9-7-7-7-7-7-7-7-7-| 
A|-7-7-7-7-7-7-7-7-5-5-5-5-5-5-5-5-|  
E|---------------------------------| 

teraz jak w refrenie bez tlumienia  

e|-----------------| 
B|-----------------| 
G|-9-9-9-9-7-7-7-7-| 
D|-9-9-9-9-7-7-7-7-| 
A|-7-7-7-7-5-5-5-5-| 
E|-----------------| 

i cos w rodzaju mostka/malej solówki 

e|----------------| 
B|----------------| 
G|----------------| 
D|7-77-7b-7b-77p5-| 
A|---------------7| 
E|----------------| x4 


teraz pauza i znowu refren 



Chorus 


e|-----------------|-----------------| 
B|-----------------|-----------------| 
G|-9-9-9-9-7-7-7-7-|-b3--b3--b3--b3--| 
D|-9-9-9-9-7-7-7-7-|-----------------| 
A|-7-7-7-7-5-5-5-5-|-----------------| 
E|-----------------|-----------------|    x2 


 teraz z tlumieniem po kazdym uderzeniu 

e|---------------------------------| 
B|---------------------------------| 
G|-9-9-9-9-9-9-9-9-7-7-7-7-7-7-7-7-| 
D|-9-9-9-9-9-9-9-9-7-7-7-7-7-7-7-7-| 
A|-7-7-7-7-7-7-7-7-5-5-5-5-5-5-5-5-|  
E|---------------------------------| 

teraz jak w refrenie bez tlumienia  

e|-----------------| 
B|-----------------| 
G|-9-9-9-9-7-7-7-7-| 
D|-9-9-9-9-7-7-7-7-| 
A|-7-7-7-7-5-5-5-5-| 
E|-----------------| 

e|----------------| 
B|----------------| 
G|----------------| 
D|7-77-7b-7b-77p5-| 
A|---------------7| 
E|----------------| x4  
		  

See also:

tabs Ira! - Poço de Sensibilidade (Solo - Acustico Mtv) tabs Deep Purple - Gypsy Kiss tabs Ira! - Envelheço na Cidade (intro) tabs Deep Purple - Smoke on the Water (solo) tabs Ira! - Eu Quero Sempre Mais (Com Pitty, intro) tabs Ira! - Prisão das Ruas
e-chords

Other versions:

tabs Tomasz Organek - Kate Moss
auto scroll beats size up size down change color hide chords drawings
tab show chords e-chords YouTube Clip e-chords hide all tabs e-chords go to top tab

share