Tom Cat

Tough Boy Hokuto No Ken

Tom Cat

tabs

by  RENEJUNIOR

save to print version add songbook text version e-mail correct tuner
chordsukulelecavacokeyboardtabbassdrumsharmonicaflute Guitar Pro
close

there isn't a video lesson for this song

chords

Tough Boy Hokuto No Ken

	  		





  Intro: 


     o . . . o . . . o . . . o . . . o . . . o . . . o . . . o . . .  
E |--5-5-5-----5-------------------------5-----5----------------------| 
B |--5-5-5-----5-------------------------5-----5----------------------| 
G |--2-2-2-----2-------------------------2-----2----------------------|    
D |--2-2-2-2-2-2-2---------4---5-4---2-2-2-2-2-2-2---------4---5-4----| 
A |--------0-0---0-----------------3-0-0---0-0---0-----------------3--| 
E |----------------3~~~~~--------------------------3~~~~~-------------| 
pm         . .   .                   . .   . .   . 



     o . . . o . . . o . . . o . . . o . . . o . . . o . . . o . . .  
E |------5-----5-------------------------5-----5-5-3------------------| 
B |------5-----5-------------------------5-----5-5-3------------------| 
G |------2-----2-------------------------2-----2-2-0------------------|    
D |--2-2-2-2-2-2-2---------4---5-4---2-2-2-2-2-2-2-0------------------| 
A |--0-0---0-0---0-----------------3-0-0---0-0------------------------| 
E |----------------3~~~~~---------------------------------------------| 
pm   . .   . .   .                   . .   . .       (Hey! Hey! Hey!) 



     o . . . o . . . o . . . o . . . o . . . o . . . o . . . o . . .  
E |--5-5-5-----5-------------------------5-----5----------------------| 
B |--5-5-5-----5-------------------------5-----5----------------------| 
G |--2-2-2-----2-------------------------2-----2----------------------|    
D |--2-2-2-2-2-2-2---------4---5-4---2-2-2-2-2-2-2---------4---5-4----| 
A |--------0-0---0-----------------3-0-0---0-0---0-----------------3--| 
E |----------------3~~~~~--------------------------3~~~~~-------------| 
pm         . .   .                   . .   . .   . 



     o . . . o . . . o . . . o . . . o . . . o . . . o . . . o . . .  
E |------5-----5-------------------------5---5-5--------------<5>-----| 
B |------5-----5-------------------------5---5-5-----------<5>--------| 
G |------2-----2-------------------------2---2-2--------<5>-----------|    
D |--2-2-2-2-2-2-2---------4---5-4---2-2-2-2-2-2-2-2-<5>--------------| 
A |--0-0---0-0---0-----------------3-0-0---0-----0-0------------------| 
E |----------------3~~~~~---------------------------------------------| 
pm   . .   . .   .                   . .   . .   . . 




  verse 1: 


     o . . . o . . . o . . . o . . . o . . . o . . . o . . . o . . .  
E |------5-----5-------------------------5-----5----------------------| 
B |------5-----5-------------------------5-----5----------------------| 
G |------2-----2-------------------------2-----2----------------------|   x3 
D |--2-2-2-2-2-2-2---------4---5-4---2-2-2-2-2-2-2---------4---5-4----| 
A |--0-0---0-0---0-----------------3-0-0---0-0---0-----------------3--| 
E |----------------3~~~~~--------------------------3~~~~~-------------| 
pm   . .   . .   .                   . .   . .   . 


     Welcome to this crazy time 
     Kono ikareta jidai e youkoso 
     Kimi wa tough boy,tough boy,tough boy,tough boy 
     Matomona yatsu hodo Feel so bad 
     Shouki de irareru nante un ga ii ze 
     You tough boy, tough boy, tough boy, tough boy 


     o . . . o . . . o . . . o . . . o . . . o . . . o . . . o . . .  
E |------5-----5-------------------------5-----5----------------------| 
B |------5-----5-------------------------5-----5----------------------| 
G |------2-----2-------------------------2-----2----------------------| 
D |--2-2-2-2-2-2-2---------4---5-4---2-2-2-2-2-2-2--------------------| 
A |--0-0---0-0---0-----------------3-0-0---0-0---0-----5-3-2-3-2------| 
E |----------------3~~~~~--------------------------3-------------5-3--| 
pm   . .   . .   .                   . .   . .   . 




  Bridge: 


     o . . . o . . . o . . . o . . . o . . . o . . . o . . . o . . .  
E |-------------------------------------------------------------------| 
B |------5-------5-------5-------5------------------------------------| 
G |------4-------4-------4-------4-------7-------7-------7-------7----| 
D |------2-------2-------2-------2---7-7-7---7-7-7---7-7-7---7-7-7----| 
A |--2-2-2---2-2-2---2-2-2---2-2-2---5-5-5---5-5-5---5-5-5---5-5-5----| 
E |--0-0-----0-0-----0-0-----0-0--------------------------------------| 
pm   . .     . .     . .     . .     . .     . .     . .     . . 

     Toki wa masani seikimatsu 


     o . . . o . . . o . . . o . . . o . . . o . . . o . . . o . . .  
E |-------------------------------------------------------------------| 
B |-------------------------------------------------------------------| 
G |------5-------5-------5-------5-------7-------7-------7-------7----| 
D |--5-5-5---5-5-5---5-5-5---5-5-5---7-7-7---7-7-7---7-7-7---7-7-7----| 
A |--3-3-3---3-3-3---3-3-3---3-3-3---5-5-5---5-5-5---5-5-5---5-5-5----| 
E |-------------------------------------------------------------------| 
pm   . .     . .     . .     . .     . .     . .     . .     . . 

     Yodonda machikado de bokura wa deatta 





  Chorus: 


     o . . . o . . . o . . . o . . . o . . . o . . . o . . . o . . .  
E |-------------------------------------------------------------------| 
B |-------------------------------------------------------------------| 
G |-------------------------------------------------------------------| 
D |--5-------------------------------2--------------------------------| 
A |--5-------------------------------2--------------------------------| 
E |--3-------------------------------0--------------------------------| 

     Keep you burning Kake nukete 


     o . . . o . . . o . . . o . . . o . . . o . . . o . . . o . . .  
E |-------------------------------------------------------------------| 
B |-------------------------------------------------------------------| 
G |--5-------------------------------7--------------------------------| 
D |--5-------------------------------7--------------------------------| 
A |--3-------------------------------5--------------------------------| 
E |-------------------------------------------------------------------| 

     Kono fuhai to jiyuu to bouryoku no matta danaka 


     o . . . o . . . o . . . o . . . o . . . o . . . o . . . o . . .  
E |-------------------------------------------------------------------| 
B |-------------------------------------------------------------------| 
G |-------------------------------------------------------------------| 
D |--5-------------------------------2--------------------------------| 
A |--5-------------------------------2--------------------------------| 
E |--3-------------------------------0--------------------------------| 

     No boy, no cry Kanashimi wa 


     o . . . o . . . o . . . o . . . o . . . o . . . o . . . o . . .  
E |-------------------------------------------------------------------| 
B |-------------------------------------------------------------------| 
G |--5-------------------------------7--------------------------------| 
D |--5-------------------------------7--------------------------------| 
A |--3-------------------------------5--------------------------------| 
E |-------------------------------------------------------------------| 

     Zetsubou ja nakute ashita no manifesuto 


     o . . . o . . . o . . . o . . . o . . . o . . . o . . . o . . .  
E |-------------------------------------------------------------------| 
B |-------------------------------------------------------------------| 
G |-------------------------------------------------------------------| 
D |--5-------------------------------2--------------------------------| 
A |--5-------------------------------2--------------------------------| 
E |--3-------------------------------0--------------------------------| 

     We are living, living in the nineties 


     o . . . o . . . o . . . o . . . o . . . o . . . o . . . o . . .  
E |-------------------------------------------------------------------| 
B |-------------------------------------------------------------------| 
G |--5-------------------------------7--------------<5>------^--------| 
D |--5-------------------------------7--------------------------------| 
A |--3-------------------------------5--------------------------------| 
E |-------------------------------------------------------------------| 

     We still fight, fighting in the nineties 




  INTRO FILL: 


     o . . . o . . . o . . . o . . . o . . . o . . . o . . . o . . .  
E |--5-5-5-----5-------------------------5-----5----------------------| 
B |--5-5-5-----5-------------------------5-----5----------------------| 
G |--2-2-2-----2-------------------------2-----2----------------------| 
D |--2-2-2-2-2-2-2---------4---5-4---2-2-2-2-2-2-2---------4---5-4----| 
A |--------0-0---0-----------------3-0-0---0-0---0-----------------3--| 
E |----------------3~~~~~--------------------------3~~~~~-------------| 
pm         . .   .                   . .   . .   .   (Hey! Hey! Hey!) 



     o . . . o . . . o . . . o . . . o . . . o . . . o . . . o . . .  
E |------5-----5-------------------------5----------------------------| 
B |------5-----5-------------------------5----------------------------| 
G |------2-----2-------------------------2---2-2---0-4050405040504050-|   pull off 4 
D |--2-2-2-2-2-2-2---------4---5-4---2-2-2-2-2-2---0------------------|   and hammer on 5 
A |--0-0---0-0---0-----------------3-0-0---0-0---0--------------------| 
E |----------------3~~~~~---------------------------------------------| 
pm   . .   . .   .                   . .   .     .   




  verse 2: 


     o . . . o . . . o . . . o . . . o . . . o . . . o . . . o . . .  
E |------5-----5-------------------------5-----5----------------------| 
B |------5-----5-------------------------5-----5----------------------| 
G |------2-----2-------------------------2-----2----------------------|   x3 
D |--2-2-2-2-2-2-2---------4---5-4---2-2-2-2-2-2-2---------4---5-4----| 
A |--0-0---0-0---0-----------------3-0-0---0-0---0-----------------3--| 
E |----------------3~~~~~--------------------------3~~~~~-------------| 
pm   . .   . .   .                   . .   . .   . 


     Doko mo kashiko mo kizu darake 
     Uzuku matte naite temo hajimaranai kara 
     Tough boy, tough boy, tough boy, tough boy 
     Dotchi o muitemo Feel so sad 
     Dakedo shi ni wa itaranai 
     Kibun wa dou dai? Tough boy, tough boy, tough boy, tough boy 


     o . . . o . . . o . . . o . . . o . . . o . . . o . . . o . . .  
E |------5-----5-------------------------5-----5----------------------| 
B |------5-----5-------------------------5-----5----------------------| 
G |------2-----2-------------------------2-----2----------------------| 
D |--2-2-2-2-2-2-2---------4---5-4---2-2-2-2-2-2-2--------------------| 
A |--0-0---0-0---0-----------------3-0-0---0-0---0-----5-3-2-3-2------| 
E |----------------3~~~~~--------------------------3-------------5-3--| 
pm   . .   . .   .                   . .   . .   . 




  Bridge: 


     o . . . o . . . o . . . o . . . o . . . o . . . o . . . o . . .  
E |-------------------------------------------------------------------| 
B |------5-------5-------5-------5------------------------------------| 
G |------4-------4-------4-------4-------7-------7-------7-------7----| 
D |------2-------2-------2-------2---7-7-7---7-7-7---7-7-7---7-7-7----| 
A |--2-2-2---2-2-2---2-2-2---2-2-2---5-5-5---5-5-5---5-5-5---5-5-5----| 
E |--0-0-----0-0-----0-0-----0-0--------------------------------------| 
pm   . .     . .     . .     . .     . .     . .     . .     . . 

     Koko wa eien no rokku rando 


     o . . . o . . . o . . . o . . . o . . . o . . . o . . . o . . .  
E |-------------------------------------------------------------------| 
B |-------------------------------------------------------------------| 
G |------5-------5-------5-------5-------7-------7-------7-------7----| 
D |--5-5-5---5-5-5---5-5-5---5-5-5---7-7-7---7-7-7---7-7-7---7-7-7----| 
A |--3-3-3---3-3-3---3-3-3---3-3-3---5-5-5---5-5-5---5-5-5---5-5-5----| 
E |-------------------------------------------------------------------| 
pm   . .     . .     . .     . .     . .     . .     . .     . . 

     Kobushi o nigiri shime bokura wa deatta 




  Chorus: 


     o . . . o . . . o . . . o . . . o . . . o . . . o . . . o . . .  
E |-------------------------------------------------------------------| 
B |-------------------------------------------------------------------| 
G |-------------------------------------------------------------------| 
D |--5-------------------------------2--------------------------------| 
A |--5-------------------------------2--------------------------------| 
E |--3-------------------------------0--------------------------------| 

     Keep you burning Kake nukete 


     o . . . o . . . o . . . o . . . o . . . o . . . o . . . o . . .  
E |-------------------------------------------------------------------| 
B |-------------------------------------------------------------------| 
G |--5-------------------------------7--------------------------------| 
D |--5-------------------------------7--------------------------------| 
A |--3-------------------------------5--------------------------------| 
E |-------------------------------------------------------------------| 

     Kono kyouki to kibou to genwaku no matta ta na ka 


     o . . . o . . . o . . . o . . . o . . . o . . . o . . . o . . .  
E |-------------------------------------------------------------------| 
B |-------------------------------------------------------------------| 
G |-------------------------------------------------------------------| 
D |--5-------------------------------2--------------------------------| 
A |--5-------------------------------2--------------------------------| 
E |--3-------------------------------0--------------------------------| 

     No boy, no cry Susumanakya 


     o . . . o . . . o . . . o . . . o . . . o . . . o . . . o . . .  
E |-------------------------------------------------------------------| 
B |-------------------------------------------------------------------| 
G |--5-------------------------------7--------------------------------| 
D |--5-------------------------------7--------------------------------| 
A |--3-------------------------------5--------------------------------| 
E |-------------------------------------------------------------------| 

     Ikioi o mashita mukai kaze no naka o 


     o . . . o . . . o . . . o . . . o . . . o . . . o . . . o . . .  
E |-------------------------------------------------------------------| 
B |-------------------------------------------------------------------| 
G |-------------------------------------------------------------------| 
D |--5-------------------------------2--------------------------------| 
A |--5-------------------------------2--------------------------------| 
E |--3-------------------------------0--------------------------------| 

     We are living, living in the nineties 


     o . . . o . . . o . . . o . . . o . . . o . . . o . . . o . . .  
E |-------------------------------------------------------------------| 
B |-------------------------------------------------------------------| 
G |--5-------------------------------7--------------------------------| 
D |--5-------------------------------7--------------------------------| 
A |--3-------------------------------5--------------------------------| 
E |-------------------------------------------------------------------| 

     We still fight, fighting in the nineties 


     o . . . o . . . o . . . o . . . o . . . o . . . o . . . o . . .  
E |-------------------------------------------------------------------| 
B |-------------------------------------------------------------------| 
G |-------------------------------------------------------------------| 
D |--5-------------------------------2--------------------------------| 
A |--5-------------------------------2--------------------------------| 
E |--3-------------------------------0--------------------------------| 

     We are living, living in the nineties 


     o . . . o . . . o . . . o . . . o . . . o . . . o . . . o . . .  
E |-------------------------------------------------------------------| 
B |-------------------------------------------------<5>---------------| 
G |--5-------------------------------7--------------------------------| 
D |--5-------------------------------7--------------------------------| 
A |--3-------------------------------5--------------------------------| 
E |-------------------------------------------------------------------| 

     We still fight, fighting in the nineties 




  GUITAR Solo: 


     o . . . o . . . o . . . o . . . o . . . o . . . o . . . o . . .  
E |--15~~~~~~~~~~~~~~~~~-----17------19~~~~~~~~~~~~~~~~~~~~~~~~~~~~~--| 
B |-------------------------------------------------------------------| 
G |-------------------------------------------------------------------| 
D |-(5)-----------------------------(2)-------------------------------| 
A |-(5)-----------------------------(2)-------------------------------| 
E |-(3)-----------------------------(0)-------------------------------| 

     We are living, living in the nineties 


     o . . . o . . . o . . . o . . . o . . . o . . . o . . . o . . .  
E |--15~~~~~~~~~~~~~~~~~-----17------19~~~~~~--17-15~~~~~~~~----/15-15| 
B |-------------------------------------------------------------------| 
G |-(5)-----------------------------(7)-------------------------------| 
D |-(5)-----------------------------(7)-------------------------------| 
A |-(3)-----------------------------(5)-------------------------------| 
E |-------------------------------------------------------------------| 

     We still fight, fighting in the nineties 


     o . . . o . . . o . . . o . . . o . . . o . . . o . . . o . . .  
E |--18p15p13h15h18p15p13h15h... (do it really fast every 1/32 note!) | 
B |-------------------------------------------------------------------| 
G |-------------------------------------------------------------------| 
D |-(5)-----------------------------(2)-------------------------------| 
A |-(5)-----------------------------(2)-------------------------------| 
E |-(3)-----------------------------(0)-------------------------------| 

     We are living, living in the nineties 


     o . . . o . . . o . . . o . . . o . . . o . . . o . . . o . . .  
E |-/15-/15~~--13-----------------------------------------------------| 
B |--------------1513^1513--------------------------------------------| 
G |-(5)------------------15121515~~~(7)------3-2-0--------------------| 
D |-(5)-----------------------------(7)12\\\\------3-2-0--------------| 
A |-(3)-----------------------------(5)------------------3-1----------| 
E |-----------------------------------------------------------3-1-3//-| 

     We still fight, fighting in the nineties 


     o . . . o . . . o . . . o . . . o . . . o . . . o . . . o . . .  
E |--15--15--15-----15---15--15-----15---15--15-----15---15--15181518-| 
B |--15--15--151817-15---15--151817-15---15--151817-15---15--15-------| 
G |-------------------------------------------------------------------| 
D |-(5)-----------------------------(2)-------------------------------| 
A |-(5)-----------------------------(2)-------------------------------| 
E |-(3)-----------------------------(0)-------------------------------| 

     We are living, living in the nineties 


     o . . . o . . . o . . . o . . . o . . . o . . . o . . . o . . .  
E |--15--17--18--20--22--24--24^^^^^(to 28!)~~~~~~~~------------------| pick fast this notes 
B |-------------------------------------------------------------------| 
G |-(5)-----------------------------(7)-------------------------------| 
D |-(5)-----------------------------(7)-------------------------------| 
A |-(3)-----------------------------(5)-------------------------------| 
E |-------------------------------------------------------------------| 

     We still fight, fighting in the nineties 




  OUTRO: 


     o . . . o . . . o . . . o . . . o . . . o . . . o . . . o . . .  
E |------5-----5-------------------------5-----5-5-3------------------| 
B |------5-----5-------------------------5-----5-5-3------------------| 
G |------2-----2-------------------------2-----2-2-0------------------|    
D |--2-2-2-2-2-2-2---------4---5-4---2-2-2-2-2-2-2-0------------------| 
A |--0-0---0-0---0-----------------3-0-0---0-0------------------------| 
E |----------------3~~~~~---------------------------------------------| 
pm   . .   . .   .                   . .   . .       (Hey! Hey! Hey!) 



     o . . . o . . . o . . . o . . . o . . . o . . . o . . . o . . .  
E |------5-----5------------------------------------------------------| 
B |------5-----5------------------------------------------------------| 
G |------2-----2------------------------------------------------------|    
D |--2-2-2-2-2-2-2---------4---5-4---------------2-0---4-2-0-5-4-2-0--| 
A |--0-0---0-0---0-----------------0-3-2-0-5-3-0-----3----------------| 
E |----------------3~~~~~---------------------------------------------| 
pm   . .   . .   .   



     o . . . o . . . o . . . o . . . o . . . o . . . o . . . o . . .  
E |----5--------------------------------------------------------------| 
B |----5--------------------------------------------------------------| 
G |----2--------------------------------------------------------------| 
D |----2--------------------------------------------------------------| 
A |--0-0--------------------------------------------------------------| 
E |-------------------------------------------------------------------| 
pm 
		  

See also:

tabs Scalene - Milhares Como Eu tabs Deep Purple - Never A Word tabs Deep Purple - Smoke On The Water (Intro + solo 01) tabs Ira! - Flerte Fatal (intro e solo) tabs Deep Purple - Deep Purple - Smoke On The Water tabs Deep Purple - Burn
e-chords

Other versions:

tabs Tom Cat - Tough Boy Hokuto No Ken
auto scroll beats size up size down change color hide chords drawings
tab show chords e-chords YouTube Clip e-chords hide all tabs e-chords go to top tab

share