Toby Fox

Undertale - Start Menu Tab

Toby Fox

Difficulty: nolevelnolevel

by hebealmeida

tuner correct add songbook print version text version save to e-mail
chordsukulelecavacokeyboardtabbassdrumsharmonicsflute Guitar Pro
close

there isn't a video lesson for this song

chords

Undertale - Start Menu

  		
Guitar 1: 
e|------------------------5-------------------------| 
B|---8-------8---------8----8-----------------------| 
G|-----7---5---------5--------7--5------------------| 
D|-5-----------5---5--------------------------------| 
A|--------------------------------------------------| 
E|--------------------------------------------------| 


Guitar 2 
e|--------------------------------------------------| 
B|--------------------------------------------------| 
G|--------------------------------------------------| 
D|------2----3--2-----------------2-----3--5-7-5----| 
A|-3--3---3--------3--5------3--3----3--------------| 
E|--------------------------------------------------| 

e|--------------------------------------------------| 
B|--------------------------------------------------| 
G|--------------------------------------------------| 
D|------5----1--1--3-5-------1----1---0---5-7-5-----| 
A|-3--3---3---------------------1---1---------------| 
E|--------------------------------------------------| 

Both Parts play through twice together,  
then guitar 2 plays through once by itself.  
After that it repeats infinitely. 
	  

auto scroll beats size up size down change color hide chords drawings
tab show chords e-chords YouTube Clip e-chords hide all tabs e-chords go to top tab

share with facebook

Search Paypal