Toby Fox

His Theme

Toby Fox

tabs

by  TERR_SCHMITZ

save to print version add songbook text version e-mail correct tuner
chordsukulelecavacokeyboardtabbassdrumsharmonicaflute Guitar Pro
close

there isn't a video lesson for this song

chords

His Theme

	  		                
E|---9-7---6-6-7-------7-6-6-7----9-7---6-6-7--------7-6-6-7---9-7---6-6-7------7--11-9-7---| 
B|--7---7------------7--7--------7---7------------7---7-------7---7------------7------------| 
G|------------------------------------------------------------------------------------------| 
D|------------------------------------------------------------------------------------------| 
A|------------------------------------------------------------------------------------------| 
E|------------------------------------------------------------------------------------------| 
                 
E|-----------------------------------------------------------------------------------------| 
B|-----------------------------------------------------------------------------------------| 
G|---6-4---3-3-4--------4-3-3-4---6-4----3-3-4-------4-3-3-4---6-4---3-3-4------4--8-6-4---| 
D|--4---4------------4---4-------4---4------------4---4-------4---4------------4-----------| 
A|-----------------------------------------------------------------------------------------| 
E|-----------------------------------------------------------------------------------------| 
		  

See also:

tabs Ira! - Envelheço Na Cidade(Solo - Acustivo Mtv) tabs Deep Purple - No No No tabs Deep Purple - Black Night tabs Deep Purple - Smoke on the water(ver. 2) tabs Deep Purple - Since Youve Been Gone tabs Albert Hammond Jr - In My Room
e-chords

Other versions:

tabs Toby Fox - His Theme
auto scroll beats size up size down change color hide chords drawings
tab show chords e-chords YouTube Clip e-chords hide all tabs e-chords go to top tab

share