Toby Fox

home > Toby Fox

Undertale - Megalovania Tab

Toby Fox

Difficulty: nolevelnolevel

by IronPower4Ever

tuner correct add songbook print version text version save to e-mail
chordsukulelecavacokeyboardtabbassdrumsharmonicsflute Guitar Pro
chords

Undertale - Megalovania

	  Tuning: Standard 
Intro/Main Riff 
e|| -----------------|----------------|---------------|----------------- || 
B|| -----------------|----------------|---------------|----------------- || 
G||•---7-------------|---7------------|---7-----------|---7-------------•|| 
D||•----7-6-5------5-|----7-6-5-----5-|----7-6-5-----5|----7-6-5-----5--•|| 
A|| 5-5------8-5-8---|---------8-5-8--|---------8-5-8-|---------8-5-8--- || 
E|| -----------------|8-8-------------|7-7------------|6-6-------------- || 

e|| ---------------------------|------------------------------| 
B|| -----15--------------------|------15----------------------| 
G||•-------14-13-12------------|---------14-13-12-------------| 
D||•12-12----------15-12-15-12-|------------------15-12-15-12-| 
A|| ---------------------------|15-15-------------------------| 
E|| ---------------------------|------------------------------| 

e|-----------------------------|----------------------------- || 
B|-----15----------------------|-----15---------------------- || 
G|--------14-13-12-------------|--------14-13-12-------------•|| 
D|-----------------15-12-15-12-|-----------------15-12-15-12-•|| 
A|14-14------------------------|13-13------------------------ || 
E|-----------------------------|----------------------------- || 

Verse 
e|----------------------|------------------------------|-----------------------| 
B|----------------------|------------------------------|-----------------13----| 
G|----------------------|---------12-13-12h13p12-------|--------12-13-14----14-| 
D|/15-15-15-15-15-12-12-|15-15-15----------------12-15-|15-15-15---------------| 
A|----------------------|------------------------------|-----------------------| 
E|----------------------|------------------------------|-----------------------| 

e|--------------------|--------------------------------|10---------8--------|---------8-| 
B|13-15-15-15---15-13-|6-6-6-6-6-----6-6-6-6---6-5-----|---10-8------8------|-----------| 
G|-----------14-------|----------7-7---------7-----7-5-|--------10-----10-9-|-----------| 
D|--------------------|--------------------------------|--------------------|----7-10---| 
A|--------------------|--------------------------------|--------------------|8-10-------| 
E|--------------------|--------------------------------|--------------------|-----------| 

e|| ----------------------------|-----8-----------------------8-9-|------------| 
B|| -6---6-8-9-8-6----9p8p6-6-8-|9-10---10-9-8-----------8-10-----|9-9p8-------| 
G||•---7-----------7-------7----|--------------10-7-9-10----------|------10-8--| 
D||•----------------------------|---------------------------------|------------| 
A|| ----------------------------|---------------------------------|------------| 
E|| ----------------------------|---------------------------------|------------| 

e|------1-0---0-1-3-0-5-|------------------|--------- || 
B|----------3-----------|10p9p8p7----------|--------- || 
G|--0-2-----------------|---------10p9p8p7-|6------8-•|| 
D|3---------------------|------------------|6------8-•|| 
A|----------------------|------------------|--------- || 
E|----------------------|------------------|--------- || 

e|-----------|-------------| 
B|-----------|-------------| 
G|-----------|-------------| 
D|-----------|-------------| 
A|--7br7-5-8-|--7br7-------| 
E|5----------|5------10\0--| 

e|| ---------------------|--------------------|-------------------|-------------------- || 
B|| ---------------------|--------------------|-------------------|-------------------- || 
G||•-----7---------------|----7---------------|----7--------------|----7---------------•|| 
D||•-------7-6-5-------5-|------7-6-5-------5-|------7-6-5------5-|------7-6-5-------5-•|| 
A|| -------------8-5-8---|------------8-5-8---|5-5--------8-5-8---|5-5---------8-5-8--- || 
E|| -6-6-----------------|8-8-----------------|-------------------|-------------------- || 

The rhythm here is odd. Listen to the track for it.  
                                                       endings 1 - 3 
                                     _____________________________________ 
e|| ----------------|----------------|----------------|---------------- ||  
B|| ----------------|----------------|----------------|---------------- || 
G||•0-0--0-0--0-0-3-|0-0--0-0--0-0-5-|0-0--0-0--0-0-7-|0-0--0-0--0-0-7-•|| 
D||•0-0--0-0--0-0-3-|0-0--0-0--0-0-5-|0-0--0-0--0-0-7-|0-0--0-0--0-0-7-•|| 
A|| 1-1--1-1--1-1-1-|3-3--3-3--3-3-3-|5-5--5-5--5-5-5-|5-5--5-5--5-5-5- || 
E|| ----------------|----------------|----------------|---------------- || 

ending 4 
___________ 
e|--------------------|--------------------|--------------------|--------------------| 
B|--------------------|--------------------|--------------------|--------------------| 
G|----7---------------|----7---------------|----7---------------|----7---------------| 
D|------7-6-5-------5-|------7-6-5-------5-|------7-6-5-------5-|------7-6-5-------5-| 
A|5-5---------8-5-8---|5-5---------8-5-8---|------------8-5-8---|------------8-5-8---| 
E|--------------------|--------------------|6-6-----------------|8-8-----------------| 

                                                                 Return to the top 
e|--------------------|--------------------|--------------------|--------------------| 
B|--------------------|--------------------|--------------------|--------------------| 
G|----7---------------|----7---------------|----7---------------|----7---------------| 
D|------7-6-5-------5-|------7-6-5-------5-|------7-6-5-------5-|------7-6-5-------5-| 
A|5-5---------8-5-8---|5-5---------8-5-8---|------------8-5-8---|------------8-5-8---| 
E|--------------------|--------------------|6-6-----------------|8-8-----------------| 


************************************ 

| /   slide up 
| \   slide down 
| h   hammer-on 
| p   pull-off 
| ~   vibrato 
| +   harmonic 
| x   Mute note 
| b   Bend 
| pb  Pre-bend 
| br  Bend release 
| pbr Pre-bend release 
| brb Bend release bend 

************************************ 
	  

there isn't a video lesson for this song

request
Search
auto scroll beats size up size down change color hide chords drawings
tab show chords e-chords YouTube Clip e-chords hide all tabs e-chords go to top tab