Toby Fox

home > Toby Fox

Temmie Village Tab

Toby Fox

Difficulty: nolevelnolevel

by tamamoreira

tuner correct add songbook print version text version save to e-mail
chordsukulelecavacokeyboardtabbassdrumsharmonicsflute Guitar Pro
chords

Temmie Village

  		Riff 1 x6 
E ---------------------------------------------------------------------| 
B ----5-----5-------5-----5--5-------6-------6-------6-------6/8-------| 
G ----5-----5-------5-----5--5-------6-------6-------6-------6/8-------| 
D ---------------------------------------------------------------------| 
A -3------------3----------------3---------------3---------------------| 
E -------3-------------3-----------------4---------------4-------------| 
B ---------------------------------------------------------------------| 


Riff 2 x3 
E ---------------------------------------------------------------------| 
B ---------------------------------------------------------------------| 
G ----7-------7-------7------7-/8-----9-----9-----9-----9-s8-----------| 
D ----8-------8-------8------8-/9-----10----10----10----10s9-----------| 
A ---------------------------------------------------------------------| 
E -6--------------6----------------8-----------8-----------------------| 
B --------6---------------6--------------8-----------8-----------------| 


Riff 3 x1 
E ---------------------------------------------------------------------| 
B ---------------------------------------------------------------------| 
G ----7-------7-------7------7-/6-----5-----5-----7-----7s8------------| 
D ----8-------8-------8------8-/7-----6-----6-----8-----8s9------------| 
A ---------------------------------------------------------------------| 
E -6--------------6----------------4-----------6-----------------------| 
B --------6---------------6--------------4-----------6-----------------| 
	  

Search Paypal
auto scroll beats size up size down change color hide chords drawings
tab show chords e-chords YouTube Clip e-chords hide all tabs e-chords go to top tab