Toby Fox

home > Toby Fox

Battle Against A Real Hero Tab

Toby Fox

Difficulty: nolevelnolevel

by joaoewerton

tuner correct add songbook print version text version save to e-mail
chordsukulelecavacokeyboardtabbassdrumsharmonicsflute Guitar Pro
chords

Battle Against A Real Hero

  		
0:00 
e|-11----13-------------------------------------------------| 
B|-------------11----13----------14----------16-------------| 
G|-------------------------13-10-------13----------13-12----| 
D|-------------------------------------------------------13-| 
A|----------------------------------------------------------| 
E|----------------------------------------------------------| 

e|-11----13----------------------------------------16--15---| 
B|-------------11----13----------14----------16-------------| 
G|-------------------------13-10-------13-------------------| 
D|----------------------------------------------------------| 
A|----------------------------------------------------------| 
E|----------------------------------------------------------| 


0:44 
e|------------|--------|--------8----|---------| 
B|-------9----|-8-9-11-|-8-9-11---8--|-8-------| 
G|----10---10-|--------|-------------|---10----| 
D|-10---------|--------|-------------|------10-| 
A|------------|--------|-------------|---------| 
E|------------|--------|-------------|---------| 

e|------------|--------|--------8-11-|--13-----| 
B|-------9----|-8-9-11-|-8-9-11------|-----13--| 
G|----10---10-|--------|-------------|-----14--| 
D|-10---------|--------|-------------|---------| 
A|------------|--------|-------------|---------| 
E|------------|--------|-------------|---------| 


1:35 
e|----8----8---8----------------------------|----8----8---8--------------------11--p10p9p8-| 
B|------11---9---8----8-9-8-9-8--11---------|------11---9---8----8-9-8-9-8--11-------------| 
G|-10--------------------------------10--8--|-10-------------------------------------------| 
D|------------------------------------------|----------------------------------------------| 
A|------------------------------------------|----------------------------------------------| 
E|------------------------------------------|----------------------------------------------| 

e|----8----8---8----------------------------|----8----8---8--------------------11--p10p9p8-| 
B|------11---9---8----8-9-8-9-8--11---------|------11---9---8----8-9-8-9-8--11-------------| 
G|-10--------------------------------10--8--|-10-------------------------------------------| 
D|------------------------------------------|----------------------------------------------| 
A|------------------------------------------|----------------------------------------------| 
E|------------------------------------------|----------------------------------------------| 


1:54 
e|----8----8---8----------------------------|----8----8---8--------------------11--p10p9p8-| 
B|------11---9---8----8-9-8-9-8--11---------|------11---9---8----8-9-8-9-8--11-------------| 
G|-10--------------------------------10--8--|-10-------------------------------------------| 
D|------------------------------------------|----------------------------------------------| 
A|------------------------------------------|----------------------------------------------| 
E|------------------------------------------|----------------------------------------------| 

e|----------------------------|----8----8---8------------------------------------------------|----| 
B|-     ----------------------|------11---9---8---8-9-8-9-8--11---------------------9-8------|----| 
G|- | | ---same as above------|-10-------------------------------10--8--10-----8-10-----8-10-|-10-| 
D|- | | ----------------------|---------------------------------------------10---------------|-x--| 
A|-     ----------------------|--------------------------------------------------------------|-8--| 
E|----------------------------|--------------------------------------------------------------|----| 
8 
e|----8----8---8----------------------------|----8----8---8--------------------11--p10p9p8-| 
B|------11---9---8----8-9-8-9-8--11---------|------11---9---8----8-9-8-9-8--11-------------| 
G|-10--------------------------------10--8--|-10-------------------------------------------| 
D|------------------------------------------|----------------------------------------------| 
A|------------------------------------------|----------------------------------------------| 
E|------------------------------------------|----------------------------------------------| 

e|----------------------------|----8----8---8------------------------------------------------|----| 
B|-     ----------------------|------11---9---8---8-9-8-9-8--11---------------------9-8------|----| 
G|- | | ---same as above------|-10-------------------------------10--8--10-----8-10-----8-10-|-10-| 
D|- | | ----------------------|---------------------------------------------10---------------|-x--| 
A|-     ----------------------|--------------------------------------------------------------|-8--| 
E|----------------------------|--------------------------------------------------------------|----| 


==== Legend ==== 

/ = slide 
h = hammer-on 
p = pull-off 
b = bend 
br = bend release 
+ = natural harmonic 
* = artificial harmonic 
	  

Search Paypal
auto scroll beats size up size down change color hide chords drawings
tab show chords e-chords YouTube Clip e-chords hide all tabs e-chords go to top tab