Tigertailz

Love Bomb Baby

Tigertailz

tabs

by  LUCICAMARGO

save to print version add songbook text version e-mail correct tuner
chordsukulelecavacokeyboardtabbassdrumsharmonicaflute Guitar Pro
close

there isn't a video lesson for this song

chords

Love Bomb Baby

	  		
Duration Legend 
--------------- 
W - whole 
H - half 
Q - quarter 
E - 8th 
S - 16th 
. - note dotted 


Tablature Legend 
---------------- 
L - tied note 
TH - tapped harmonic 
h - hammer on 
p - pull off 
b - bend 
br - bendRelease 
~ - vibrato 
W - wide vibrato 
T - tapping 
< - fade in 

Intro 

     H.           E  E     H        E  E  E  E     E  E   E   E   E  E  E  E    
E||---------------------|-----------------------|-----------------------------| 
B||---------------------|-----------------------|--------10--10--10--9-----7--| 
G||---------------------|-----------------------|---------9---9---9--9-----8--| 
D||--9------------7--7--|--L--------L--7--5--2--|--L--------------------------| 
A||--9------------7--7--|--L--------L--7--5--2--|--L--------------------------| 
E||--7------------5--5--|--L--------L--5--3--0--|--L--0-----------------------| 


                                                  PM   
  E  E  E  E  Q.     E     Q     E   E   E  E  E  E    
------------------------|----------------------------| 
-----7-----9--9------9--|--L----10--10--10--9--------| 
-----8-----9--9------9--|--L-----9---9---9--9--------| 
------------------------|-------------------------9--| 
------------------------|----------------------------| 
------------------------|----------------------------| 


         PM       PM                                                       
   E  E  E  E  E  E  E  E                                                  
---------------------------| 
---------------------------| 
--11--8-----9--6-----------| 
---------9--------7--7-----| 
---------------------------| 
---------------------------| 

Verse 

     E  E  E  E  E  E  Q       E  E  E  E  E  E  Q      
E||-------------------------|-------------------------| 
B||-------------------------|-------------------------| 
G||-------------------------|-----7--7--9--9--9-------| 
D||-------------------------|-----4--4--7--7--7-------| 
A||-----5--4--5--4--4-------|-------------------------| 
E||-----5--5--5--5--5-------|-------------------------| 


  E  E  E  E  E  E  E  E     E  E  H.             
--------------------------|---------------------| 
--------------------------|---------------------| 
--------------------------|---------------------| 
--------------------------|---------------------| 
-----5--4--5--4--4-----9--|-----7--7------------| 
-----5--5--5--5--5-----7--|-----5--5------------| 


  E  E  E  E  E  E  Q       E  E  E  E  E  E  Q      
-------------------------|-------------------------| 
-------------------------|-------------------------| 
-------------------------|-----7--7--9--9--9-------| 
-------------------------|-----4--4--7--7--7-------| 
-----5--4--5--4--4-------|-------------------------| 
-----5--5--5--5--5-------|-------------------------| 


  E  E  E  E  E  E  Q       H.           E              
-------------------------|---------------------| 
-------------------------|---------------------| 
-------------------------|---------------------| 
-------------------------|---------------------| 
-----5--4--5--4--4-------|--9------------L-----| 
-----5--5--5--5--5-------|--7------------L-----| 

Alternative ending to Verse 

     E  E  Q.     S  S S  S S  S                            
E||------------------------------| 
B||------------------------------| 
G||------------------------------| 
D||---------------7p-5-7p-5------| 
A||-----7--7----------------7p-5-| 
E||-----5--5---------------------| 

Chorus 

                     E     E   E   E  H        E    
E||---------------------|-------------------------| 
B||------------------9--|--L--10--10-----------7--| 
G||------------------9--|--L---9---9-----------8--| 
D||---------------------|-------------------------| 
A||---------------------|-------------------------| 
E||---------------------|-------------------------| 


  E  E  E  H        E     E   E   E  H        E    
-----------------------|-------------------------| 
--L--9--9-----------9--|--L--10--10-----------7--| 
--L--9--9-----------9--|--L---9---9-----------8--| 
-----------------------|-------------------------| 
-----------------------|-------------------------| 
-----------------------|-------------------------| 


  E  E  E  E  Q    E  E     E   E   E  H        E    
-------------------------|-------------------------| 
-----7-----9--9-------9--|--L--10--10-----------7--| 
-----8-----9--9-------9--|--L---9---9-----------8--| 
-------------------------|-------------------------| 
-------------------------|-------------------------| 
-------------------------|-------------------------| 


  E  E  E  H        E     H        E  E  E  E    
-----------------------|-----------------------| 
--L--9--9--------------|-----------------------| 
--L--9--9--------------|--4--------L-----4--7--| 
-----------------------|--4--------L-----4--7--| 
-----------------------|--2--------L-----2--5--| 
-----------------------|-----------------------| 


                             PM                        
  H        E  E  E  E     E  E   E   E   E  E  E  E    
-----------------------|-----------------------------| 
-----------------------|--------10--10--10--9-----7--| 
--L--------7--7--4-----|---------9---9---9--9-----8--| 
--L--------7--7--4--2--|--L--------------------------| 
--L--------5--5--2--2--|--L--------------------------| 
--------------------0--|--L--0-----------------------| 


                                                  PM   
  E  E  E  E  Q.     E     Q     E   E   E  E  E  E    
------------------------|----------------------------| 
-----7-----9--9------9--|--L----10--10--10--9--------| 
-----8-----9--9------9--|--L-----9---9---9--9--------| 
------------------------|-------------------------9--| 
------------------------|----------------------------| 
------------------------|----------------------------| 


         PM       PM                                       
   E  E  E  E  E  E  E  E     E  E   E   E   E  E  E  E    
---------------------------|-----------------------------| 
---------------------------|--------10--10--10--9-----7--| 
--11--8-----9--6-----------|---------9---9---9--9-----8--| 
---------9--------7--7--2--|--L--2-----------------------| 
------------------------2--|--L--2-----------------------| 
------------------------0--|--L--0-----------------------| 


                                                  PM   
  E  E  E  E  Q.     E     Q     E   E   E  E  E  E    
------------------------|----------------------------| 
-----7-----9--9------9--|--L----10--10--10--9--------| 
-----8-----9--9------9--|--L-----9---9---9--9--------| 
------------------------|-------------------------9--| 
------------------------|----------------------------| 
------------------------|----------------------------| 


         PM       PM                                         
   E  E  E  E  E  E  E  E                                    
---------------------------| 
---------------------------| 
--11--8-----9--6-----------| 
---------9--------7--7-----| 
---------------------------| 
---------------------------| 

Solo 
      <                  
      W                  
E||--12----------------| 
B||--------------------| 
G||--------------------| 
D||--------------------| 
A||--------------------| 
E||--------------------| 


   T         T         T         T         T         T         T         T       
   |---3--|  |---3--|  |---3--|  |---3--|  |---3--|  |---3--|  |---3--|  |---3-- 
   S   S  S  S   S  S  S   S  S  S   S  S  S   S  S  S   S  S  S   S  S  S   S   
--12p-10p-9-12p-10p-9-12p-10p-9-12p-10p-9-12p-10p-9-12p-10p-9-12p-10p-9-12p-10p- 
-------------------------------------------------------------------------------- 
-------------------------------------------------------------------------------- 
-------------------------------------------------------------------------------- 
-------------------------------------------------------------------------------- 
-------------------------------------------------------------------------------- 


   T         T         T         T         T         T         T              
   |---3--|  |---3--|  |---3--|  |---3--|  |---3--|  |---3--|  |---3--|       
   S   S  S  S   S  S  S   S  S  S   S  S  S   S  S  S   S  S  S   S  S E     
----------------------------------------------------------------------------| 
--12p-10p-9-12p-10p-9-12p-10p-9-12p-10p-9-12p-10p-9-12p-10p-9-12p-10p-9-5~--| 
----------------------------------------------------------------------------| 
----------------------------------------------------------------------------| 
----------------------------------------------------------------------------| 
----------------------------------------------------------------------------| 


                                           Whammy bar vibrato  
                                           W                   
  W                    H        E   Q      E                   
--------------------|--------------12b----12-----------------| 
--L~----------------|--L--------L----------------------------| 
--------------------|----------------------------------------| 
--------------------|----------------------------------------| 
--------------------|----------------------------------------| 
--------------------|----------------------------------------| 

Ending 

     E   E   E  E  E  E  Q       E  E  E  E  E  E  Q      
E||---------------------------|-------------------------| 
B||-----10--10--9--9--9-------|-----7--7--9--9--9-------| 
G||------9---9--9--9--9-------|-----8--8--9--9--9-------| 
D||---------------------------|-------------------------| 
A||---------------------------|-------------------------| 
E||---------------------------|-------------------------| 


  E   E   E  E  E  E  E  E     E  E  H.             
----------------------------|---------------------| 
-----10--10--9--9--9-----7--|-----5--5------------| 
------9---9--9--9--9-----6--|-----4--4------------| 
----------------------------|---------------------| 
----------------------------|---------------------| 
----------------------------|---------------------| 


  E   E   E  E  E  E  Q       E  E  E  E  E  E  Q      
---------------------------|-------------------------| 
-----10--10--9--9--9-------|-----7--7--9--9--9-------| 
------9---9--9--9--9-------|-----8--8--9--9--9-------| 
---------------------------|-------------------------| 
---------------------------|-------------------------| 
---------------------------|-------------------------| 


  E   E   E  E  E  E  Q       E  E  E  E  H          
---------------------------|-----------------------| 
-----10--10--9--9--9-------|-----------------------| 
------9---9--9--9--9-------|--2--1-----------------| 
---------------------------|--------2--2--L--------| 
---------------------------|-----------2--L--------| 
---------------------------|-----------0--L--------| 


  W                   W                   W                  
-------------------|-------------------|-------------------| 
-------------------|-------------------|-------------------| 
-------------------|-------------------|-------------------| 
--L----------------|--L----------------|--L----------------| 
--L----------------|--L----------------|--L----------------| 
--L----------------|--L----------------|--L----------------| 
		  

See also:

tabs Deep Purple - Smoke on the water (ver. 3) tabs Albert Hammond Jr - Holiday tabs Deep Purple - When a Blind man cries tabs Deep Purple - The Unwritten Law tabs Deep Purple - Highway Star tabs Ira! - Núcleo Base ( Acústico MTV)
e-chords

Other versions:

tabs Tigertailz - Love Bomb Baby
auto scroll beats size up size down change color hide chords drawings
tab show chords e-chords YouTube Clip e-chords hide all tabs e-chords go to top tab

share