The World Is A Beautiful Place

To The Janitor To The King

The World Is A Beautiful Place

tabs

by  TARIKIKE

save to print version add songbook text version e-mail correct tuner
chordsukulelecavacokeyboardtabbassdrumsharmonicaflute Guitar Pro
close

there isn't a video lesson for this song

chords

To The Janitor To The King

	  		

e|-----3---2--------------5---3----------------------------------------------| 
B|------0---0--1-3---------0---0---3-5---------------------------------------| 
G|-------0---0--------------0---0--------------------------------------------|  
D|---2------------------4----------------------------------------------------| 
A|--3------------------5-----------------------------------------------------| 
E|---------------------------------------------------------------------------| 

e|-----3---2--------------5---3-------------5--3-----------------------------| 
B|------0---0--1-3---------0---0---3-5-------0--0--3-5-----------------------| 
G|-------0---0--------------0---0-------------0--0---------------------------|  
D|---2------------------4-----------------4----------------------------------| 
A|--3------------------5-----------------5-----------------------------------| 
E|---------------------------------------------------------------------------| 
                                                
e|---------------0-0---0-0-0---0---0-0---0-0-0---0---0-0---0-0-0---0---------| 
B|---------------1-1---1-1-1---1---3-3---3-3-3---3---1-1---1-1-1---1---------| 
G|---------------0-0---0-0-0---0---0-0---0-0-0---0---0-0---0-0-0---0---------| 
D|---------------2-2---2-2-2---2---4-4---4-4-4---4---2-2---2-2-2---2---------| 
A|---------------3-3---3-3-3---3---5-5---5-5-5---5---3-3---3-3-3---3---------| 
E|---------------------------------------------------------------------------| 
   So there's this party, down at the pier, and we can go there if you want, 

e|------0-0---0-0-0----0-0---0-0-0---0---0-0---0-0-0---0----------------------| 
B|------3-3---3-3-3----1-1---1-1-1---1---3-3---3-3-3---3----------------------| 
G|------0-0---0-0-0----0-0---0-0-0---0---0-0---0-0-0---0----------------------| 
D|------4-4---4-4-4----2-2---2-2-2---2---4-4---4-4-4---4----------------------| 
A|------5-5---5-5-5----3-3---3-3-3---3---5-5---5-5-5---5----------------------| 
E|----------------------------------------------------------------------------|  
   or just hang here, because I have discovered, it's not the place or the 

e|---------------0-0---0-0-0---0---0-0---0-0-0---0---0-0-0-0-0-0--0------------| 
B|---------------1-1---1-1-1---1---3-3---3-3-3---3---0-0-0-0-0-0--0------------| 
G|---------------0-0---0-0-0---0---0-0---0-0-0---0---0-0-0-0-0-0--0------------| 
D|---------------2-2---2-2-2---2---4-4---4-4-4---4---0-0-0-0-0-0--2------------| 
A|---------------3-3---3-3-3---3---5-5---5-5-5---5---2-2-2-2-2-2--0------------| 
E|-----------------------------------------------------------------------------| 
                surroundings, but what you make of it 

e|-----3---2--------------5---3----------------------------------------------| 
B|------0---0--1-3---------0---0---3-5---------------------------------------| 
G|-------0---0--------------0---0--------------------------------------------|  
D|---2------------------4----------------------------------------------------| 
A|--3------------------5-----------------------------------------------------| 
E|---------------------------------------------------------------------------| 

e|-----3---2--------------5---3-------------5--3-----------------------------| 
B|------0---0--1-3---------0---0---3-5-------0--0--3-5-----------------------| 
G|-------0---0--------------0---0-------------0--0---------------------------|  
D|---2------------------4-----------------4----------------------------------| 
A|--3------------------5-----------------5-----------------------------------| 
E|---------------------------------------------------------------------------| 
                                                   Those long.... 

e|------0-0---0-0-0---0---0-0---0-0-0---0---0-0---0-0-0---0------------------| 
B|------1-1---1-1-1---1---3-3---3-3-3---3---1-1---1-1-1---1------------------| 
G|------0-0---0-0-0---0---0-0---0-0-0---0---0-0---0-0-0---0------------------| 
D|------2-2---2-2-2---2---4-4---4-4-4---4---2-2---2-2-2---2------------------| 
A|------3-3---3-3-3---3---5-5---5-5-5---5---3-3---3-3-3---3------------------| 
E|---------------------------------------------------------------------------| 
    eyelashes,and retro dresses, current situations, but I'm not into... 

e|------0-0---0-0-0----0-0---0-0-0---0---0-0---0-0-0---0---------------------| 
B|------3-3---3-3-3----1-1---1-1-1---1---3-3---3-3-3---3---------------------| 
G|------0-0---0-0-0----0-0---0-0-0---0---0-0---0-0-0---0---------------------| 
D|------4-4---4-4-4----2-2---2-2-2---2---4-4---4-4-4---4---------------------| 
A|------5-5---5-5-5----3-3---3-3-3---3---5-5---5-5-5---5---------------------| 
E|---------------------------------------------------------------------------|  
      it,    only so many days, to flee from the possible awfulness, and to 

e|------0-0---0-0-0---0---0-0---0-0-0---0---0-0-0-0-0-0--0-------------------| 
B|------1-1---1-1-1---1---3-3---3-3-3---3---0-0-0-0-0-0--0-------------------| 
G|------0-0---0-0-0---0---0-0---0-0-0---0---0-0-0-0-0-0--0-------------------| 
D|------2-2---2-2-2---2---4-4---4-4-4---4---0-0-0-0-0-0--2-------------------| 
A|------3-3---3-3-3---3---5-5---5-5-5---5---2-2-2-2-2-2--0-------------------| 
E|------------------------------------------0-0-0-0-0-0--0-------------------| 



************************************ 

| /   slide up 
| \   slide down 
| h   hammer-on 
| p   pull-off 
| ~   vibrato 
| +   harmonic 
| x   Mute note 
| b   Bend 
| pb  Pre-bend 
| br  Bend release 
| pbr Pre-bend release 
| brb Bend release bend 

************************************ 
		  

See also:

tabs Deep Purple - Smoke On The Water (Intro + solo 01) tabs Deep Purple - Perfect Strangers tabs Deep Purple - Smoke on the water (ver. 3) tabs Ira! - Eu Quero Sempre Mais (ver. 2) tabs Deep Purple - Fireball (ver. 2) tabs Deep Purple - Squished Bananas Dave&cammey
e-chords

Other versions:

tabs The World Is A Beautiful Place - To The Janitor To The King
auto scroll beats size up size down change color hide chords drawings
tab show chords e-chords YouTube Clip e-chords hide all tabs e-chords go to top tab

share with facebook