The Shadows

Apatche

The Shadows

tabs Expert expert

by  HIGGINS55

save to print version add songbook text version e-mail correct tuner
chordsukulelecavacokeyboardtabbassdrumsharmonicaflute Guitar Pro
close

there isn't a video lesson for this song

chords

Apatche

	  		Shadows 
Apache 
 
sorry guys working on the chords but this is the lead 
i ,ove this song, nearly as good as classical gas, which rocks 
 
E--------------------5---3---0--------------------------------------- 
B----1---3-------1--------------------------------------------------- 
G-2----------2------------------------------------------------------- 
D-------------------------------------------------------------------- 
A-------------------------------------------------------------------- 
E-------------------------------------------------------------------- 
 
E--------------------5---3---0--------------------------------------- 
B----1---3-------1--------------------------------------------------- 
G-2----------2------------------------------------------------------- 
D-------------------------------------------------------------------- 
A-------------------------------------------------------------------- 
E-------------------------------------------------------------------- 
 
 
E-------------------------------------------------------------------- 
B-------------------------------------------------------------------- 
G----2-----2--------------------------------------------------------- 
D-2-----2------4---2---0---2----------------------------------------- 
A-------------------------------------------------------------------- 
E-------------------------------------------------------------------- 
 
E-------------------------------------------------------------------- 
B-------------------------------------------------------------------- 
G----2-----2--------------------------------------------------------- 
D-2-----2------4---2---0---2----------------------------------------- 
A-------------------------------------------------------------------- 
E-------------------------------------------------------------------- 
 
E-------------------------------------------------------------------- 
B----3-------3---0---0----------------------------------------------- 
G-2------2---------------2--0--2------------------------------------- 
D-------------------------------------------------------------------- 
A-------------------------------------------------------------------- 
E-------------------------------------------------------------------- 
 
E-------------------------------------------------------------------- 
B-------------------------------------------------------------------- 
G----2-----2--------------------------------------------------------- 
D-2-----2-------4---2---0----2--------------------------------------- 
A-------------------------------------------------------------------- 
E-------------------------------------------------------------------- 
 
E-------------------------------------------------------------------- 
B-------------------------------------------------------------------- 
G-------------------------------------------------------------------- 
D------3---3---3------X4---------2----------------------------------- 
A--3-----------------------------------0----------------------------- 
E-------------------------------------------------------------------- 
 
E-------------------------------------------------------------------- 
B-------------------------------------------------------------------- 
G-------------------------------------------------------------------- 
D------3---3---3------X4---------2----------------------------------- 
A--3-----------------------------------0----------------------------- 
E-------------------------------------------------------------------- 
 
 
E---------------------------------0---------------------------------- 
B------------1----0-----1----3---------3-----1----------------------- 
G------2--------------------------------------------2---------------- 
D--3----------------------------------------------------------------- 
A-------------------------------------------------------------------- 
E-------------------------------------------------------------------- 
 
E---------------------------------0---------------------------------- 
B------------1----0-----1----3---------3-----1----------------------- 
G------2--------------------------------------------2---------------- 
D--3----------------------------------------------------------------- 
A-------------------------------------------------------------------- 
E-------------------------------------------------------------------- 
 
E---------------------------------0---------------------------------- 
B------------1----0-----1----3---------3-----1----------------------- 
G------2--------------------------------------------2---------------- 
D--3----------------------------------------------------------------- 
A-------------------------------------------------------------------- 
E-------------------------------------------------------------------- 
 
E-------------------------------------------------------------------- 
B-------------------------------------------------------------------- 
G-------------------------------------------------------------------- 
D------3---3---3------X2---------2----------------------------------- 
A--3-----------------------------------0----------------------------- 
E-------------------------------------------------------------------- 
 
E-------------------------------------------------------------------- 
B-------------------------------------------------------------------- 
G----2-----2---------------2----------------------------------------- 
D-2-----2------4---2---0-------2------------------------------------- 
A-------------------------------------------------------------------- 
E-------------------------------------------------------------------- 
 
E-------------------------------------------------------------------- 
B-------------------------------------------------------------------- 
G----2-----2---------------2----------------------------------------- 
D-2-----2------4---2---0-------2------------------------------------- 
A-------------------------------------------------------------------- 
E-------------------------------------------------------------------- 
 
E-------------------------------------------------------------------- 
B----3-------3---0---0---------3------------------------------------- 
G-2------2---------------2--0-----2---------------------------------- 
D-------------------------------------------------------------------- 
A-------------------------------------------------------------------- 
E-------------------------------------------------------------------- 
 
E-------------------------------------------------------------------- 
B-------------------------------------------------------------------- 
G----2-----2---------------2----------------------------------------- 
D-2-----2------4---2---0-------2------------------------------------- 
A-------------------------------------------------------------------- 
E-------------------------------------------------------------------- 
 
 
 
 
 
 
E-------------------------------------------------------------------- 
B-------------------------------------------------------------------- 
G----2-----2---------------2----------------------------------------- 
D-2-----2------4---2---0-------2------------------------------------- 
A-------------------------------------------------------------------- 
E-------------------------------------------------------------------- 
 
E---------------------------------0---------------------------------- 
B------------1----0-----1----3---------3-----1----------------------- 
G------2--------------------------------------------2---------------- 
D--3----------------------------------------------------------------- 
E-------------------------------------------------------------------- 
 
E-------------------------------------------------------------------- 
B------------1----0-----1----3--------------------------------------- 
G------2--------------------------0---------------------------------- 
D--3----------------------------------------------------------------- 
A-------------------------------------------------------------------- 
E-------------------------------------------------------------------- 
 
E-------------------------------------------------------------------- 
B-------------------------------------------------------------------- 
G---0---0---0---0----1--0---1--0------------------------------------- 
D-------------------------------------------------------------------- 
A-------------------------------------------------------------------- 
E-------------------------------------------------------------------- 
 
E---------------------------------0---------------------------------- 
B------------1----0-----1----3---------3-----1----------------------- 
G------2--------------------------------------------2---------------- 
D--3----------------------------------------------------------------- 
A-------------------------------------------------------------------- 
E-------------------------------------------------------------------- 
 
E-------------------------------------------------------------------- 
B-------------------------------------------------------------------- 
G-------------------------------------------------------------------- 
D------3---3---3------X4---------2----------------------------------- 
A--3-----------------------------------0----------------------------- 
E-------------------------------------------------------------------- 
 
E-------------------------------------------------------------------- 
B-------------------------------------------------------------------- 
G-------------------------------------------------------------------- 
D-------------------------------------------------------------------- 
A-------------------------------------------------------------------- 
E----1---X5------5--X5--------8----X5-------13---X5------------------ 
 
E--------------------5---3---0--------------------------------------- 
B----1---3-------1--------------------------------------------------- 
G-2----------2------------------------------------------------------- 
D-------------------------------------------------------------------- 
A-------------------------------------------------------------------- 
E-------------------------------------------------------------------- 
 

		  

See also:

tabs Dire Straits - Why Worry tabs Marillion - Beautiful tabs The Shadows - Apache tabs Status Quo - Whatever you want tabs Deep Purple - Smoke On The Water tabs Billy Idol - White Wedding
e-chords

Other versions:

tabs The Shadows - Apatche
auto scroll beats size up size down change color hide chords drawings
tab show chords e-chords YouTube Clip e-chords hide all tabs e-chords go to top tab

share