The Shadows

Geronimo

The Shadows

tabs

by  ANDRSOUZA

save to print version add songbook text version e-mail correct tuner
chordsukulelecavacokeyboardtabbassdrumsharmonicaflute Guitar Pro
close

there isn't a video lesson for this song

chords

Geronimo

Key:  Am More
Geronimo Key EmEm
Geronimo Key FmFm
Geronimo Key F#mF#m
Geronimo Key GmGm(one step down)
Geronimo Key G#mG#m(half step down)
Geronimo Key AmAm(original key)
Geronimo Key A#mA#m(half step up)
Geronimo Key BmBm(one step up)
Geronimo Key CmCm
Geronimo Key C#mC#m
Geronimo Key DmDm
Geronimo Key D#mD#m
	  		


  Gtr I 
   H.                  Q 
|----------------------------| 
|----------------------------| 
|----------------------------| 
|----------------------------| 
|--0-------------------3-----| 
|----------------------------| 
| 
| Gtr II 
|  H            Q      Q 
|----------------------------| 
|-13------------------17-----| 
|-14------------------17-----| 
|----------------------------| 
|----------------------------| 
|----------------------------| 


  G                                Am 
   E  S S E S S  E  S S E  S   S    E S S E S S E S S E S S 
   |  | | | | |  |  | | |  |   |    | | | | | | | | | | | | 
   /  / / / / /  /  / / /  /   /    / / / / / / / / / / / / 

   H             Q.       +E        W 
|--------------------------------|--------------------------| 
|--------------------------------|--------------------------| 
|--------------------------------|--------------------------| 
|--------------------------------|--------------------------| 
|--2-----------------------------|--0-----------------------| 
|----------------3--------(3)/---|--------------------------| 
| 
|  Q.       E    H                  W 
|--------------------------------|--------------------------| 
|-15------------12---------------|-13-----------------------| 
|-16------------12---------------|-14-----------------------| 
|--------------------------------|--------------------------| 
|--------------------------------|--------------------------| 
|--------------------------------|--------------------------| 


                             $ 
    E  S S E S S E S S E S S 
    |  | | | | | | | | | | | 
    /  / / / / / / / / / / / 

   +W 
|----------------------------| 
|----------------------------| 
|----------------------------| 
|----------------------------| 
|--(0)-----------------------| 
|----------------------------| 
| 
|  +W 
|----------------------------| 
|-(13)-----------------------| 
|-(14)-----------------------| 
|----------------------------| 
|----------------------------| 
|----------------------------| 


    Am 
    E S S E S S E S S E S S   E S S E S S E S S E S S 
    | | | | | | | | | | | |   | | | | | | | | | | | | 
    / / / / / / / / / / / /   / / / / / / / / / / / / 

    PM--------------------------------------------| 
    Q     Q     E E   E E     E E   Q     Q     E E 
||--------------------------|--------------------------| 
||o-------------------------|--------------------------| 
||--------------------------|--------------------------| 
||----------------2---1-2---|-3-2----------------------| 
||o-0-----------------------|-------------------5-3----| 
||--------------------------|--------------------------| 
| 
|   W                         W 
||--------------------------|--------------------------| 
||o-------------------------|--------------------------| 
||--------------------------|--------------------------| 
||--------------------------|--------------------------| 
||o-------------------------|--------------------------| 
||--------------------------|--------------------------| 


  E7                                                  C 
  E S S E S S E S S E S S   E S S E S S E S S E S S   E S S E S S E S S E S S 
  | | | | | | | | | | | |   | | | | | | | | | | | |   | | | | | | | | | | | | 
  / / / / / / / / / / / /   / / / / / / / / / / / /   / / / / / / / / / / / / 

  PM----------------------------------------------------------------------| 
  Q     Q     E E   E E     E E   Q     Q     E E     Q     Q     E E   E E 
|-------------------------|-------------------------|--------------------------| 
|-------------------------|-------------------------|--------------------------| 
|-------------------------|-------------------------|--------------------------| 
|---------------2---1-2---|-3-2---------------------|---------------2---1-2----| 
|-2-----------------------|-------------------3-2---|-3------------------------| 
|-------------------------|-------------------------|--------------------------| 


                            E7 
  E S S E S S E S S E S S   E S S E S S E S S E S S   E S S E S S E S S E S S 
  | | | | | | | | | | | |   | | | | | | | | | | | |   | | | | | | | | | | | | 
  / / / / / / / / / / / /   / / / / / / / / / / / /   / / / / / / / / / / / / 

  PM------------------| 
  E E   Q     Q     E E     W                         W 
|-------------------------|-------------------------|--------------------------| 
|-------------------------|-------------------------|-0------------------------| 
|-------------------------|-1-----------------------|--------------------------| 
|-3-2---------------3-2---|-------------------------|--------------------------| 
|-------------------------|-------------------------|--------------------------| 
|-------------------------|-------------------------|--------------------------| 


  F 
   E  S S E S S E S S E S S 
   |  | | | | | | | | | | | 
   /  / / / / / / / / / / / 

  Gtrs I, II 
   Q.       E   Q     E E 
|---------------------------| 
|-^1------------1-----0-----| 
|-^2--------------------2---| 
|-^3------------------------| 
|-^3------------------------| 
|---------------------------| 


  C                         F 
  E S S E S S E S S E S S   E S S E S S E S S E S S 
  | | | | | | | | | | | |   | | | | | | | | | | | | 
  / / / / / / / / / / / /   / / / / / / / / / / / / 

  Q     Q     H             H           Q     E E 
|-------------------------|--------------------------| 
|-------------------------|--------------------------| 
|-0-----------------------|-------------2-----0------| 
|-------2-----------------|---------------------3----| 
|-------------3-----------|--------------------------| 
|-------------------------|--------------------------| 


  Am                        F 
  E S S E S S E S S E S S   E S S E S S E S S E S S 
  | | | | | | | | | | | |   | | | | | | | | | | | | 
  / / / / / / / / / / / /   / / / / / / / / / / / / 

  Q     Q     H             H           Q     E E 
|-------------------------|-------------------------| 
|-------------------------|-------------------------| 
|-------------------------|-------------------------| 
|-2-----------------------|-------------3-----2-0---| 
|-------3-----0-----------|-------------------------| 
|-------------------------|-------------------------| 


  C 
  E  S S E S S E S S E S S 
  |  | | | | | | | | | | | 
  /  / / / / / / / / / / / 

  H.                 E E 
|---------------------------| 
|---------------------------| 
|---------------------------| 
|-2-------------------------| 
|--------------------3s5----| 
|---------------------------| 


                    To Coda 
  G 
  E  S S E S S E S S E S S 
  |  | | | | | | | | | | | 
  /  / / / / / / / / / / / 

  H.                 E E 
|---------------------------| 
|---------------------------| 
|---------------------------| 
|---------------------------| 
|-5-------------------------| 
|--------------------3s5----| 


                           1. 
  Am 
  E S S E S S E S S E S S   E S S E S S E S S E S S 
  | | | | | | | | | | | |   | | | | | | | | | | | | 
  / / / / / / / / / / / /   / / / / / / / / / / / / 

  W                         W 
|-------------------------|--------------------------|| 
|-------------------------|-------------------------o|| 
|-------------------------|--------------------------|| 
|-------------------------|--------------------------|| 
|-0-----------------------|-------------------------o|| 
|-------------------------|--------------------------|| 


  2. 
  Am                         F 
  E S S E S S E S S E S S    E S S E S S E S S E S S 
  | | | | | | | | | | | |    | | | | | | | | | | | | 
  / / / / / / / / / / / /    / / / / / / / / / / / / 

  H           Q     E S S    E S S E E   H 
|-------------------------||-------------------------| 
|-------------------------||-------------6-----------| 
|-------------------------||---------5---5-----------| 
|-------------------------||-7-7-7-7-7---------------| 
|---------------------8-8-||-8-8-8-8-----------------| 
|-------------------------||-------------------------| 


   E  S S E S S E S S E S S 
   |  | | | | | | | | | | | 
   /  / / / / / / / / / / / 

  +Q      E E   E E   Q 
|---------------------------| 
|-(6)-----------------------| 
|-(5)-----7-5---7-5---------| 
|---------------------7-----| 
|---------------------------| 
|---------------------------| 


  C 
  E S S E S S E S S E S S   E S S E S S E S S E S S 
  | | | | | | | | | | | |   | | | | | | | | | | | | 
  / / / / / / / / / / / /   / / / / / / / / / / / / 

  W                         E E   E E   E E   E E 
|-------------------------|--------------------------| 
|-------------------------|--------------------------| 
|-------------------------|--------------------------| 
|-5-----------------------|---5---7-5---7-5---7-5----| 
|-------------------------|--------------------------| 
|-------------------------|--------------------------| 


  G                                                   C 
  E S S E S S E S S E S S   E S S E S S E S S E S S   E S S E S S E S S E S S 
  | | | | | | | | | | | |   | | | | | | | | | | | |   | | | | | | | | | | | | 
  / / / / / / / / / / / /   / / / / / / / / / / / /   / / / / / / / / / / / / 

  H           H             Q     E E   E E   Q       W 
|-------------------------|-------------------------|--------------------------| 
|-------------------------|-------------------------|--------------------------| 
|-------------------------|-------------------------|--------------------------| 
|-5-----------------------|-------7-5---7-5---------|--------------------------| 
|-------------5-----------|-------------------5-----|-7------------------------| 
|-------------------------|-------------------------|--------------------------| 


  C7                          F 
   E  S S E S S E S S E S S   E S S E S S E S S E S S 
   |  | | | | | | | | | | |   | | | | | | | | | | | | 
   /  / / / / / / / / / / /   / / / / / / / / / / / / 

  +H.                 E S S   E S S E E   H 
|---------------------------|-------------------------| 
|---------------------------|-------------6-----------| 
|---------------------------|---------5---5-----------| 
|---------------------------|-7-7-7-7-7---------------| 
|-(7)-------------------8-8-|-8-8-8-8-----------------| 
|---------------------------|-------------------------| 


   E  S S E S S E S S E S S 
   |  | | | | | | | | | | | 
   /  / / / / / / / / / / / 

  +Q      E E   E E   Q 
|----------------------------| 
|-(6)------------------------| 
|-(5)-----7-5---7-5----------| 
|---------------------7------| 
|----------------------------| 
|----------------------------| 


  C                                                     G 
  E  S S E S S E S S E S S   E  S S E S S E S S E S S   W 
  |  | | | | | | | | | | |   |  | | | | | | | | | | |   | 
  /  / / / / / / / / / / /   /  / / / / / / / / / / /   / 

  H.                 Q       H.                 E S S   E S S E E Q  E E 
|--------------------------|--------------------------|------------------| 
|--------------------------|--------------------------|------------------| 
|--------------------------|--------------------------|---------4-7--4---| 
|-5------------------------|-2--------------------5-5-|-5-5-5-5----------| 
|--------------------3-----|--------------------------|------------------| 
|--------------------------|--------------------------|------------------| 


                                                              D.S. al Coda 
  F                  Am 
  W                   E S S E S S E S S E S S    E  S S E S S E S S E S S 
  |                   | | | | | | | | | | | |    |  | | | | | | | | | | | 
  /                   / / / / / / / / / / / /    /  / / / / / / / / / / / 

                      ~~ 
  E S S E E Q  E E    W                         +W 
|------------------|--------------------------|-----------------------------|| 
|-----------1------|-^1-----------------------|-(1)-------------------------|| 
|---------2----2-0-|-^2-----------------------|-(2)-------------------------|| 
|-3-3-3-3----------|-^2-----------------------|-(2)-------------------------|| 
|------------------|--------------------------|-----------------------------|| 
|------------------|--------------------------|-----------------------------|| 


  & 
  Am 
  E  S S E S S E S S E S S   E  S S E S S E S S E S S 
  |  | | | | | | | | | | |   |  | | | | | | | | | | | 
  /  / / / / / / / / / / /   /  / / / / / / / / / / / 

  Gtr I 
  H.                 E E     H.                 Q 
|--------------------------|--------------------------|| 
|--------------------------|--------------------------|| 
|--------------------------|--------------------------|| 
|--------------------------|--------------------------|| 
|-0------------------------|-0------------------------|| 
|--------------------3s5---|--------------------------|| 
| 
| Gtr II 
| W                          W 
|--------------------------|--------------------------|| 
|--------------------------|--------------------------|| 
|--------------------------|--------------------------|| 
|--------------------------|--------------------------|| 
|--------------------------|--------------------------|| 
|--------------------------|--------------------------|| 


  Am 
   E  S S E S S E S S  E S S 
   |  | | | | | | | |  | | | 
   /  / / / / / / / /  / / / 

   H.                  Q 
|-----------------------------| 
|-----------------------------| 
|-----------------------------| 
|-----------------------------| 
|--0-------------------3------| 
|-----------------------------| 
| 
|  H            Q      Q 
|-----------------------------| 
|-13------------------17------| 
|-14------------------17------| 
|-----------------------------| 
|-----------------------------| 
|-----------------------------| 


  G 
   E S S E S S  E  S S E  S   S 
   | | | | | |  |  | | |  |   | 
   / / / / / /  /  / / /  /   / 

   H            Q.       +E 
|-------------------------------| 
|-------------------------------| 
|-------------------------------| 
|-------------------------------| 
|--2----------------------------| 
|---------------3--------(3)/---| 
| 
|  Q     Q      H 
|-------------------------------| 
|-15-----------12---------------| 
|-16-----------12---------------| 
|-------------------------------| 
|-------------------------------| 
|-------------------------------| 


  Am                         A 
   E S S E S S E S S E S S    E  S S E S S E S S E S S 
   | | | | | | | | | | | |    |  | | | | | | | | | | | 
   / / / / / / / / / / / /    /  / / / / / / / / / / / 

   W                         +H            H 
|--------------------------|----------------------------| 
|--------------------------|----------------------------| 
|--------------------------|----------------------------| 
|--------------------------|----------------------------| 
|--0-----------------------|-(0)------------------------| 
|--------------------------|----------------------------| 
| 
|  W                          W 
|--------------------------|----------------------------| 
|-13-----------------------|----------------------------| 
|-14-----------------------|----------------------------| 
|--------------------------|----------------------------| 
|--------------------------|----------------------------| 
|--------------------------|----------------------------| 


    E S S E S S E S S E S S     E S S E S S E S S E S S 
    | | | | | | | | | | | |     | | | | | | | | | | | | 
    / / / / / / / / / / / /     / / / / / / / / / / / / 

  Gtr I 
    W                           W 
|-^-8-----------------------|-^-9-----------------------| 
|-^10-----------------------|-^10-----------------------| 
|-^-9-----------------------|-^-9-----------------------| 
|-^10-----------------------|---------------------------| 
|---------------------------|---------------------------| 
|---------------------------|---------------------------| 


    E S S E S S E S S E S S     E S S S S S S   E  E Q 
    | | | | | | | | | | | |     | | | | | | |   | 
    / / / / / / / / / / / /     / / / / / / /   / 

    W                           H              +E  E Q 
|-^-8-----------------------|-^-9--------------(9)------*| 
|-^10-----------------------|-^10-------------(10)------*| 
|-^-9-----------------------|-^-9--------------(9)------*| 
|-^10-----------------------|---------------------------*| 
|---------------------------|---------------------------*| 
|---------------------------|---------------------------*| 


Duration Legend 
--------------- 
W - whole; H - half; Q - quarter; E - 8th; S - 16th; T - 32nd; X - 64th; a - acciaccatura 
+ - note tied to previous; . - note dotted; .. - note double dotted 
Uncapitalized letters represent notes that are staccato (1/2 duration) 
Irregular groupings are notated above the duration line 
Duration letters will always appear directly above the note/fret number it represents the 
duration for.  Duration letters with no fret number below them represent rests.  Multi- 
bar rests are notated in the form Wxn, where n is the number of bars to rest for.  Low 
melody durations appear below the staff 

Tablature Legend 
---------------- 
 h   - hammer-on 
 p   - pull-off 
 b   - bend 
 pb  - pre-bend 
 r   - bend release (if no number after the r, then release immediately) 
 /\  - slide into or out of (from/to "nowhere") 
 s   - legato slide 
 S   - shift slide 
  - natural harmonic 
n  - artificial harmonic 
n(n) - tapped harmonic 
 ~   - vibrato 
 tr  - trill 
 T   - tap 
 TP  - trem. picking 
 PM  - palm muting 
\n/  - tremolo bar dip; n = amount to dip 
 \n  - tremolo bar down 
 n/  - tremolo bar up 
/n\  - tremolo bar inverted dip 
 =   - hold bend; also acts as connecting device for hammers/pulls 
 <>  - volume swell (louder/softer) 
 x   - on rhythm slash represents muted slash 
 o   - on rhythm slash represents single note slash 

Misc Legend 
----------- 
 |  - bar 
||  - double bar 
||o - repeat start 
o|| - repeat end 
*|  - double bar (ending) 
 :  - bar (freetime) 
 $  - Segno 
 &  - Coda 
Tempo markers -  = BPM(8/16=s8/s16), where s8 = swing 8ths, s16 = swing 16ths 
		  

See also:

tabs Eric Clapton - Wonderful Tonight tabs Eric Clapton - Hey, Hey tabs The Beatles - Yesterday tabs Eagles - Hotel California tabs Deep Purple - Highway Star tabs The Beatles - Blackbird
e-chords

Other versions:

tabs The Shadows - Geronimo
auto scroll beats size up size down change color hide chords drawings
tab show chords e-chords YouTube Clip e-chords hide all tabs e-chords go to top tab

share