The Shadows

My Resistance Is Low

The Shadows

tabs

by  ANG-LETRA

save to print version add songbook text version e-mail correct tuner
chordsukulelecavacokeyboardtabbassdrumsharmonicaflute Guitar Pro
close

there isn't a video lesson for this song

chords

My Resistance Is Low

	  		

Gtr I (E A D G B E) - 'Hank Marvin - Electric Guitar' 
Gtr II (E A D G B E) - 'Bruce Welch - Acoustic Guitar' 


  Q=220(8=s8) 
  A 
 3/4 
  Gtr I (El. Gtr.) 
   PM---------------------------------------------------| 
   Q   Q   Q     Q   Q    Q      Q   Q    Q     Q   Q    Q 
|-------------|---------------|--------------|--------------| 
|-----14------|-----14--------|-----14-------|-----14-------| 
|---------14--|----------14---|----------14--|----------14--| 
|-14----------|-14------------|-14-----------|-14-----------| 
|-------------|---------------|--------------|--------------| 
|-------------|---------------|--------------|--------------| 
| 
| Gtr II (Ac. Gtr.) 
|  Q   Q   Q     Q   E E  E E    Q   E E  Q     Q   E E  Q 
|--5---5---5--|--5---5-5--5-5-|--5---5-5--5--|--5---5-5--5--| 
|--5---5---5--|--5---5-5--5-5-|--5---5-5--5--|--5---5-5--5--| 
|--6---6---6--|--6---6-6--6-6-|--6---6-6--6--|--6---6-6--6--| 
|--7---7---7--|--7---7-7--7-7-|--7---7-7--7--|--7---7-7--7--| 
|-------------|---------------|--------------|--------------| 
|-------------|---------------|--------------|--------------| 


                                                                  A 
   PM--------------------| 
   Q   Q   Q     Q   Q    Q      H.            +H        +E  E    H. 
|-------------|---------------|-------------|------------------||-----------| 
|-----14------|-----14--------|-------------|------------------||-----------| 
|---------14--|----------14---|-------------|------------------||-----------| 
|-14----------|-14------------|-14----------|-(14)------(14)---||-----------| 
|-------------|---------------|-------------|------------------||-0---------| 
|-------------|---------------|-------------|------------------||-----------| 
| 
|  Q   Q   Q     Q   E E  E E    Q   E E Q      Q   E E   Q       Q   Q  Q 
|--5---5---5--|--5---5-5--5-5-|--5---5-5-5--|---5---5-5---5----||-5---5--5--| 
|--5---5---5--|--5---5-5--5-5-|--5---5-5-5--|---5---5-5---5----||-5---5--5--| 
|--6---6---6--|--6---6-6--6-6-|--6---6-6-6--|---6---6-6---6----||-6---6--6--| 
|--7---7---7--|--7---7-7--7-7-|--7---7-7-7--|---7---7-7---7----||-7---7--7--| 
|-------------|---------------|-------------|------------------||-----------| 
|-------------|---------------|-------------|------------------||-----------| 


                             A6 
  +Q   Q   Q     Q  Q   Q    +Q   Q   Q 
|--------------|-----------|-------------| 
|--------------|-----------|-------------| 
|--------------|-----------|-------------| 
|--------------|-----------|-------------| 
|-(0)--2---4---|-----------|------0---2--| 
|--------------|-0--2---2--|-(2)---------| 
| 
|  Q   E E E E   Q  E E Q     Q   E E Q 
|--5---5-5-5-5-|-5--5-5-5--|--5---5-5-5--| 
|--5---5-5-5-5-|-5--5-5-5--|--7---7-7-7--| 
|--6---6-6-6-6-|-6--6-6-6--|--6---6-6-6--| 
|--7---7-7-7-7-|-7--7-7-7--|--7---7-7-7--| 
|--------------|-----------|-------------| 
|--------------|-----------|-------------| 


  A 
             ~~~~~~~~~~~~~~~~~~ 
  Q  Q  Q    H.            +H. 
|----------|-------------|---------------| 
|----------|-------------|---------------| 
|----------|-------------|---------------| 
|----2--4--|-2-----------|-(2)-----------| 
|-4--------|-------------|---------------| 
|----------|-------------|---------------| 
| 
| Q  Q  Q    Q   E E E E    Q   E E Q 
|-5--5--5--|-5---5-5-5-5-|--5---5-5-5----| 
|-5--5--5--|-5---5-5-5-5-|--5---5-5-5----| 
|-6--6--6--|-6---6-6-6-6-|--6---6-6-6----| 
|-7--7--7--|-7---7-7-7-7-|--7---7-7-7----| 
|----------|-------------|---------------| 
|----------|-------------|---------------| 


                A 
   ~~~ 
  +H.           H.          +Q   Q   Q 
|-------------|-----------|--------------| 
|-------------|-----------|--------------| 
|-------------|-----------|--------------| 
|-(2)---------|-----------|--------------| 
|-------------|-0---------|-(0)--2---4---| 
|-------------|-----------|--------------| 
| 
|  Q   E E Q    Q   Q  Q     Q   E E E E 
|--5---5-5-5--|-5---5--5--|--5---5-5-5-5-| 
|--7---7-7-7--|-5---5--5--|--5---5-5-5-5-| 
|--6---6-6-6--|-6---6--6--|--6---6-6-6-6-| 
|--7---7-7-7--|-7---7--7--|--7---7-7-7-7-| 
|-------------|-----------|--------------| 
|-------------|-----------|--------------| 


  A6                        A 
  Q  Q   Q    +Q   Q   Q    Q  Q  Q 
|-----------|-------------|------------| 
|-----------|-------------|------------| 
|-----------|-------------|------------| 
|-----------|-------------|------------| 
|-----------|------0---2--|-4--0-------| 
|-0--2---2--|-(2)---------|-------2----| 
| 
| Q  E E Q     Q   E E Q    Q  Q  Q 
|-5--5-5-5--|--5---5-5-5--|-5--5--5----| 
|-7--7-7-7--|--7---7-7-7--|-5--5--5----| 
|-6--6-6-6--|--6---6-6-6--|-6--6--6----| 
|-7--7-7-7--|--7---7-7-7--|-7--7--7----| 
|-----------|-------------|------------| 
|-----------|-------------|------------| 


  ~~~~~~~~~~~~~~~~~~~~~~~~~~~~~~~~ 
  H.            +H.           +H. 
|-------------|-------------|-------------| 
|-------------|-------------|-------------| 
|-------------|-------------|-------------| 
|-------------|-------------|-------------| 
|-0-----------|-(0)---------|-(0)---------| 
|-------------|-------------|-------------| 
| 
| Q   E E E E    Q   E E Q     Q   E E Q 
|-5---5-5-5-5-|--5---5-5-5--|--5---5-5-5--| 
|-5---5-5-5-5-|--5---5-5-5--|--5---5-5-5--| 
|-6---6-6-6-6-|--6---6-6-6--|--6---6-6-6--| 
|-7---7-7-7-7-|--7---7-7-7--|--7---7-7-7--| 
|-------------|-------------|-------------| 
|-------------|-------------|-------------| 


                             A6 
  H.          +Q   Q   Q     Q  Q   Q 
|-----------|--------------|-------------| 
|-----------|--------------|-------------| 
|-----------|--------------|-------------| 
|-----------|--------------|-------------| 
|-0---------|-(0)--2---4---|-------------| 
|-----------|--------------|-0--2---2----| 
| 
| Q   Q  Q     Q   E E E E   Q  E E Q 
|-5---5--5--|--5---5-5-5-5-|-5--5-5-5----| 
|-5---5--5--|--5---5-5-5-5-|-7--7-7-7----| 
|-6---6--6--|--6---6-6-6-6-|-6--6-6-6----| 
|-7---7--7--|--7---7-7-7-7-|-7--7-7-7----| 
|-----------|--------------|-------------| 
|-----------|--------------|-------------| 


                A 
                           ~~~~~~~~~~~~~ 
  +Q   Q   Q    Q  Q  Q    H. 
|-------------|----------|-------------| 
|-------------|----------|-------------| 
|-------------|----------|-------------| 
|-------------|----2--4--|-2-----------| 
|------0---2--|-4--------|-------------| 
|-(2)---------|----------|-------------| 
| 
|  Q   E E Q    Q  Q  Q    Q   E E E E 
|--5---5-5-5--|-5--5--5--|-5---5-5-5-5-| 
|--7---7-7-7--|-5--5--5--|-5---5-5-5-5-| 
|--6---6-6-6--|-6--6--6--|-6---6-6-6-6-| 
|--7---7-7-7--|-7--7--7--|-7---7-7-7-7-| 
|-------------|----------|-------------| 
|-------------|----------|-------------| 


 ~~~~~~~~~~~~~~~~~~~ 
  +H.           +H.           H. 
|-------------|-------------|-------------| 
|-------------|-------------|-------------| 
|-------------|-------------|-------------| 
|-(2)---------|-(2)---------|-------------| 
|-------------|-------------|-0-----------| 
|-------------|-------------|-------------| 
| 
|  Q   E E Q     Q   E E Q    Q   Q  Q 
|--5---5-5-5--|--5---5-5-5--|-5---5--5----| 
|--5---5-5-5--|--5---5-5-5--|-5---5--5----| 
|--6---6-6-6--|--6---6-6-6--|-6---6--6----| 
|--7---7-7-7--|--7---7-7-7--|-7---7--7----| 
|-------------|-------------|-------------| 
|-------------|-------------|-------------| 


                             A6 
  +Q   Q   Q     Q  Q   Q    +Q   Q   Q 
|--------------|-----------|-------------| 
|--------------|-----------|-------------| 
|--------------|-----------|-------------| 
|--------------|-----------|-------------| 
|-(0)--2---4---|-----------|------0---2--| 
|--------------|-0--2---2--|-(2)---------| 
| 
|  Q   E E E E   Q  E E Q     Q   E E Q 
|--5---5-5-5-5-|-5--5-5-5--|--5---5-5-5--| 
|--5---5-5-5-5-|-5--5-5-5--|--7---7-7-7--| 
|--6---6-6-6-6-|-6--6-6-6--|--6---6-6-6--| 
|--7---7-7-7-7-|-7--7-7-7--|--7---7-7-7--| 
|--------------|-----------|-------------| 
|--------------|-----------|-------------| 


  A 
             ~~~~~~~~~~~~~~~~~~ 
  Q  Q  Q    H.            +H. 
|----------|-------------|---------------| 
|----------|-------------|---------------| 
|----------|-------------|---------------| 
|----------|-------------|---------------| 
|-4--0-----|-0-----------|-(0)-----------| 
|-------2--|-------------|---------------| 
| 
| Q  Q  Q    Q   E E E E    Q   E E Q 
|-5--5--5--|-5---5-5-5-5-|--5---5-5-5----| 
|-5--5--5--|-5---5-5-5-5-|--5---5-5-5----| 
|-6--6--6--|-6---6-6-6-6-|--6---6-6-6----| 
|-7--7--7--|-7---7-7-7-7-|--7---7-7-7----| 
|----------|-------------|---------------| 
|----------|-------------|---------------| 


                         D 
   ~~~~~~~~ 
  +Q   +S  E   S +Q      H. 
|--------------5-(5)--||-4---------| 
|---------------------||-----------| 
|---------------------||-----------| 
|---------------------||-----------| 
|-(0)--(0)------------||-----------| 
|---------------------||-----------| 
| 
|  Q    E    E    Q      Q   Q  Q 
|--5----5----5----5---||-5---5--5--| 
|--5----5----5----5---||-7---7--7--| 
|--6----6----6----6---||-7---7--7--| 
|--7----7----7----7---||-7---7--7--| 
|---------------------||-----------| 
|---------------------||-----------| 


                  A 
  +Q.    Q.       Q  H         +Q   +S  E   S +Q 
|-(4)----2------|-0----------|--------------5-(5)--| 
|---------------|------------|---------------------| 
|---------------|----2-------|-(2)--(2)------------| 
|---------------|------------|---------------------| 
|---------------|------------|---------------------| 
|---------------|------------|---------------------| 
| 
|  Q   E E  E E   Q  E E E E    Q    E    E    Q 
|--5---5-5--5-5-|-5--5-5-5-5-|--5----5----5----5---| 
|--7---7-7--7-7-|-5--5-5-5-5-|--5----5----5----5---| 
|--7---7-7--7-7-|-6--6-6-6-6-|--6----6----6----6---| 
|--7---7-7--7-7-|-7--7-7-7-7-|--7----7----7----7---| 
|---------------|------------|---------------------| 
|---------------|------------|---------------------| 


  D                           A                           D 
  H.          +Q.    Q.       H.           +Q.    Q.      H. 
|-4---------|-(4)----2------|------------|--------5-----|-4---------| 
|-----------|---------------|-5----------|-(5)----------|-----------| 
|-----------|---------------|------------|--------------|-----------| 
|-----------|---------------|------------|--------------|-----------| 
|-----------|---------------|------------|--------------|-----------| 
|-----------|---------------|------------|--------------|-----------| 
| 
| Q   Q  Q     Q   E E  E E   Q   E E Q     Q   E E  Q    Q   Q  Q 
|-5---5--5--|--5---5-5--5-5-|-5---5-5-5--|--5---5-5--5--|-5---5--5--| 
|-7---7--7--|--7---7-7--7-7-|-5---5-5-5--|--5---5-5--5--|-7---7--7--| 
|-7---7--7--|--7---7-7--7-7-|-6---6-6-6--|--6---6-6--6--|-7---7--7--| 
|-7---7--7--|--7---7-7--7-7-|-7---7-7-7--|--7---7-7--7--|-7---7--7--| 
|-----------|---------------|------------|--------------|-----------| 
|-----------|---------------|------------|--------------|-----------| 


                  A                                            A6 
  +Q.    Q.       Q  H        +Q   +S  E   S +Q     Q  Q  Q    Q  Q   Q 
|-(4)----2------|-----------|--------------2-(2)--|-0-----2--|-0--2---3---| 
|---------------|-5---------|---------------------|----2-----|------------| 
|---------------|----2------|-(2)--(2)------------|----------|------------| 
|---------------|-----------|---------------------|----------|------------| 
|---------------|-----------|---------------------|----------|------------| 
|---------------|-----------|---------------------|----------|------------| 
| 
|  Q   E E  E E   Q  E E Q     Q    E    E    Q     Q  Q  Q    Q  E E E E 
|--5---5-5--5-5-|-5--5-5-5--|--5----5----5----5---|-5--5--5--|-5--5-5-5-5-| 
|--7---7-7--7-7-|-5--5-5-5--|--5----5----5----5---|-7--7--7--|-7--7-7-7-7-| 
|--7---7-7--7-7-|-6--6-6-6--|--6----6----6----6---|-6--6--6--|-6--6-6-6-6-| 
|--7---7-7--7-7-|-7--7-7-7--|--7----7----7----7---|-7--7--7--|-7--7-7-7-7-| 
|---------------|-----------|---------------------|----------|------------| 
|---------------|-----------|---------------------|----------|------------| 


  E/Ab                           A 
  ~~~~~~~~~~~~~~~~~~~~~~~~~~ 
  H.           +H       +E  E    H. 
|-4----------|-(4)------(4)---||-----------| 
|------------|----------------||-----------| 
|------------|----------------||-----------| 
|------------|----------------||-----------| 
|------------|----------------||-0---------| 
|------------|----------------||-----------| 
| 
| Q   E E Q     Q   E E  Q       Q   Q  Q 
|-4---4-4-4--|--4---4-4--4----||-5---5--5--| 
|-5---5-5-5--|--5---5-5--5----||-5---5--5--| 
|-4---4-4-4--|--4---4-4--4----||-6---6--6--| 
|-6---6-6-6--|--6---6-6--6----||-7---7--7--| 
|------------|----------------||-----------| 
|------------|----------------||-----------| 


                 A6 
  +Q   Q   Q     Q  Q   Q    +Q   Q   Q 
|--------------|-----------|---------------| 
|--------------|-----------|---------------| 
|--------------|-----------|---------------| 
|--------------|-----------|---------------| 
|-(0)--2---4---|-----------|------0---2----| 
|--------------|-0--2---2--|-(2)-----------| 
| 
|  Q   E E E E   Q  E E Q     Q   E E Q 
|--5---5-5-5-5-|-5--5-5-5--|--5---5-5-5----| 
|--5---5-5-5-5-|-7--7-7-7--|--7---7-7-7----| 
|--6---6-6-6-6-|-6--6-6-6--|--6---6-6-6----| 
|--7---7-7-7-7-|-7--7-7-7--|--7---7-7-7----| 
|--------------|-----------|---------------| 
|--------------|-----------|---------------| 


  A 
             ~~~~~~~~~~~~~~~~~~~~~~~~~~~ 
  Q  Q  Q    H.            +H. 
|----------|-------------|-------------| 
|----------|-------------|-------------| 
|----------|-------------|-------------| 
|----2--4--|-2-----------|-(2)---------| 
|-4--------|-------------|-------------| 
|----------|-------------|-------------| 
| 
| Q  Q  Q    Q   E E E E    Q   E E Q 
|-5--5--5--|-5---5-5-5-5-|--5---5-5-5--| 
|-5--5--5--|-5---5-5-5-5-|--5---5-5-5--| 
|-6--6--6--|-6---6-6-6-6-|--6---6-6-6--| 
|-7--7--7--|-7---7-7-7-7-|--7---7-7-7--| 
|----------|-------------|-------------| 
|----------|-------------|-------------| 


 ~~~~~ 
  +H.           H.          +Q   Q   Q 
|-------------|-----------|----------------| 
|-------------|-----------|----------------| 
|-------------|-----------|----------------| 
|-(2)---------|-----------|----------------| 
|-------------|-0---------|-(0)--2---4-----| 
|-------------|-----------|----------------| 
| 
|  Q   E E Q    Q   Q  Q     Q   E E E E 
|--5---5-5-5--|-5---5--5--|--5---5-5-5-5---| 
|--5---5-5-5--|-5---5--5--|--5---5-5-5-5---| 
|--6---6-6-6--|-6---6--6--|--6---6-6-6-6---| 
|--7---7-7-7--|-7---7--7--|--7---7-7-7-7---| 
|-------------|-----------|----------------| 
|-------------|-----------|----------------| 


  A6                        A 
  Q  Q   Q    +Q   Q   Q    Q  Q  Q 
|-----------|-------------|----------| 
|-----------|-------------|----------| 
|-----------|-------------|----------| 
|-----------|-------------|----------| 
|-----------|------0---2--|-4--0-----| 
|-0--2---2--|-(2)---------|-------2--| 
| 
| Q  E E Q     Q   E E Q    Q  Q  Q 
|-5--5-5-5--|--5---5-5-5--|-5--5--5--| 
|-7--7-7-7--|--7---7-7-7--|-5--5--5--| 
|-6--6-6-6--|--6---6-6-6--|-6--6--6--| 
|-7--7-7-7--|--7---7-7-7--|-7--7--7--| 
|-----------|-------------|----------| 
|-----------|-------------|----------| 


  ~~~~~~~~~~~~~~~~~~~~~~~~~~~~~~~~ 
  H.            +H.           +H. 
|-------------|-------------|---------------|| 
|-------------|-------------|---------------|| 
|-------------|-------------|---------------|| 
|-------------|-------------|---------------|| 
|-0-----------|-(0)---------|-(0)-----------|| 
|-------------|-------------|---------------|| 
| 
| Q   E E E E    Q   E E Q     Q   E E Q 
|-5---5-5-5-5-|--5---5-5-5--|--5---5-5-5----|| 
|-5---5-5-5-5-|--5---5-5-5--|--5---5-5-5----|| 
|-6---6-6-6-6-|--6---6-6-6--|--6---6-6-6----|| 
|-7---7-7-7-7-|--7---7-7-7--|--7---7-7-7----|| 
|-------------|-------------|---------------|| 
|-------------|-------------|---------------|| 


  A 
   PM----------------------------------------- 
   Q   Q   Q     Q   Q    Q      Q   Q    Q 
|-------------|---------------|--------------| 
|-----14------|-----14--------|-----14-------| 
|---------14--|----------14---|----------14--| 
|-14----------|-14------------|-14-----------| 
|-------------|---------------|--------------| 
|-------------|---------------|--------------| 
| 
|  Q   Q   Q     Q   E E  E E    Q   E E  Q 
|--5---5---5--|--5---5-5--5-5-|--5---5-5--5--| 
|--5---5---5--|--5---5-5--5-5-|--5---5-5--5--| 
|--6---6---6--|--6---6-6--6-6-|--6---6-6--6--| 
|--7---7---7--|--7---7-7--7-7-|--7---7-7--7--| 
|-------------|---------------|--------------| 
|-------------|---------------|--------------| 


                   D 
 --------| 
   Q.     Q.        H.           +Q.     Q. 
|---------------||------------|-------------------| 
|---------------||------------|-------------------| 
|--------14-----||-13---------|-(13)----11--------| 
|-14------------||------------|-------------------| 
|---------------||------------|-------------------| 
|---------------||------------|-------------------| 
| 
|  Q   E  E  Q      Q   Q  Q      Q   E  E  E E 
|--5---5--5--5--||--5---5--5--|---5---5--5--5-5---| 
|--5---5--5--5--||--7---7--7--|---7---7--7--7-7---| 
|--6---6--6--6--||--7---7--7--|---7---7--7--7-7---| 
|--7---7--7--7--||--7---7--7--|---7---7--7--7-7---| 
|---------------||------------|-------------------| 
|---------------||------------|-------------------| 


  A 
   Q   H         +Q    +S  E    S  +Q 
|-------------|-------------------------| 
|-------------|-------------------------| 
|-------------|----------------14-(14)--| 
|-14----------|-------------------------| 
|-----12------|-(12)--(12)--------------| 
|-------------|-------------------------| 
| 
|  Q   E E Q      Q     E    E      Q 
|--5---5-5-5--|---5-----5----5------5---| 
|--5---5-5-5--|---5-----5----5------5---| 
|--6---6-6-6--|---6-----6----6------6---| 
|--7---7-7-7--|---7-----7----7------7---| 
|-------------|-------------------------| 
|-------------|-------------------------| 


  D                              A 
   H.           +Q.     Q.        H. 
|------------|-----------------|-------------| 
|------------|-----------------|-------------| 
|-13---------|-(13)----11------|-------------| 
|------------|-----------------|-14----------| 
|------------|-----------------|-------------| 
|------------|-----------------|-------------| 
| 
|  Q   Q  Q      Q   E  E  E E    Q   E E Q 
|--5---5--5--|---5---5--5--5-5-|--5---5-5-5--| 
|--7---7--7--|---7---7--7--7-7-|--5---5-5-5--| 
|--7---7--7--|---7---7--7--7-7-|--6---6-6-6--| 
|--7---7--7--|---7---7--7--7-7-|--7---7-7-7--| 
|------------|-----------------|-------------| 
|------------|-----------------|-------------| 


                   D 
   +Q.     Q.       H.           +Q.     Q. 
|----------------|------------|-----------------| 
|----------------|------------|-----------------| 
|---------14-----|-13---------|-(13)----11------| 
|-(14)-----------|------------|-----------------| 
|----------------|------------|-----------------| 
|----------------|------------|-----------------| 
| 
|   Q   E  E  Q     Q   Q  Q      Q   E  E  E E 
|---5---5--5--5--|--5---5--5--|---5---5--5--5-5-| 
|---5---5--5--5--|--7---7--7--|---7---7--7--7-7-| 
|---6---6--6--6--|--7---7--7--|---7---7--7--7-7-| 
|---7---7--7--7--|--7---7--7--|---7---7--7--7-7-| 
|----------------|------------|-----------------| 
|----------------|------------|-----------------| 


  A 
   Q   H         +Q    +S  E    S  +Q 
|-------------|-------------------------| 
|-------------|-------------------------| 
|-------------|----------------11-(11)--| 
|-14----------|-------------------------| 
|-----12------|-(12)--(12)--------------| 
|-------------|-------------------------| 
| 
|  Q   E E Q      Q     E    E      Q 
|--5---5-5-5--|---5-----5----5------5---| 
|--5---5-5-5--|---5-----5----5------5---| 
|--6---6-6-6--|---6-----6----6------6---| 
|--7---7-7-7--|---7-----7----7------7---| 
|-------------|-------------------------| 
|-------------|-------------------------| 


  A6                          E/Ab 
                               ~~~~~~~~~~~~ 
  Q   Q   Q    Q   Q    Q      H. 
|------------|--------------|-------------| 
|------------|--------------|-------------| 
|-9------11--|-9--11---12---|-13----------| 
|----11------|--------------|-------------| 
|------------|--------------|-------------| 
|------------|--------------|-------------| 
| 
| Q   Q   Q    Q   E E  E E    Q   E E Q 
|-5---5---5--|-5---5-5--5-5-|--4---4-4-4--| 
|-7---7---7--|-7---7-7--7-7-|--5---5-5-5--| 
|-6---6---6--|-6---6-6--6-6-|--4---4-4-4--| 
|-7---7---7--|-7---7-7--7-7-|--6---6-6-6--| 
|------------|--------------|-------------| 
|------------|--------------|-------------| 


 ~~~~~~~~~~~~~~~~~~ 
   +H        +E  E   Q  Q   Q    Q  Q   Q 
|------------------|-----------|-------------|| 
|------------------|-----------|-------------|| 
|-(13)------(13)---|-----------|-------------|| 
|------------------|-----------|-------------|| 
|------------------|-----------|-------------|| 
|------------------|-0--0---0--|-0--0---0----|| 
| 
|   Q   E E   Q      Q  E E Q    Q  E E Q 
|---4---4-4---4----|-4--4-4-4--|-4--4-4-4----|| 
|---5---5-5---5----|-5--5-5-5--|-5--5-5-5----|| 
|---4---4-4---4----|-4--4-4-4--|-4--4-4-4----|| 
|---6---6-6---6----|-6--6-6-6--|-6--6-6-6----|| 
|------------------|-----------|-------------|| 
|------------------|-----------|-------------|| 


  F                                               Bb 
  Q  Q   Q    Q  Q   Q    Q  Q   Q    Q  Q   Q    H.          +Q   Q   Q 
|-----------|-----------|-----------|-----------|-----------|--------------| 
|-----------|-----------|-----------|-----------|-----------|--------------| 
|-----------|-----------|-----------|-----------|-----------|--------------| 
|-----------|-----------|-----------|-----------|-----------|----------0---| 
|-----------|-----------|-----------|--------0--|-1---------|-(1)--3-------| 
|-1--1---1--|-1--1---1--|-1--1---1--|-1--3------|-----------|--------------| 
| 
| Q  E E Q    Q  E E Q    Q  E E Q    Q  E E Q    Q   Q  Q     Q   E E E E 
|-5--5-5-5--|-5--5-5-5--|-5--5-5-5--|-5--5-5-5--|-6---6--6--|--6---6-6-6-6-| 
|-6--6-6-6--|-6--6-6-6--|-6--6-6-6--|-6--6-6-6--|-6---6--6--|--6---6-6-6-6-| 
|-5--5-5-5--|-5--5-5-5--|-5--5-5-5--|-5--5-5-5--|-7---7--7--|--7---7-7-7-7-| 
|-7--7-7-7--|-7--7-7-7--|-7--7-7-7--|-7--7-7-7--|-8---8--8--|--8---8-8-8-8-| 
|-----------|-----------|-----------|-----------|-----------|--------------| 
|-----------|-----------|-----------|-----------|-----------|--------------| 


  Bb6                       Bb 
  Q  Q   Q    +Q   Q   Q    Q  Q  Q 
|-----------|-------------|----------| 
|-----------|-------------|----------| 
|-----------|-------------|-------0--| 
|-----------|-------------|-0--3-----| 
|-----------|------1---3--|----------| 
|-1--3---3--|-(3)---------|----------| 
| 
| Q  E E Q     Q   E E Q    Q  Q  Q 
|-6--6-6-6--|--6---6-6-6--|-6--6--6--| 
|-8--8-8-8--|--8---8-8-8--|-6--6--6--| 
|-7--7-7-7--|--7---7-7-7--|-7--7--7--| 
|-8--8-8-8--|--8---8-8-8--|-8--8--8--| 
|-----------|-------------|----------| 
|-----------|-------------|----------| 


  ~~~~~~~~~~~~~~~~~~~~~~~~~~~~~~~~~~~~~~~~~ 
  H.            +H.           +H       +E  E 
|-------------|-------------|----------------| 
|-------------|-------------|----------------| 
|-------------|-------------|----------------| 
|-3-----------|-(3)---------|-(3)------(3)---| 
|-------------|-------------|----------------| 
|-------------|-------------|----------------| 
| 
| Q   E E E E    Q   E E Q     Q   E E  Q 
|-6---6-6-6-6-|--6---6-6-6--|--6---6-6--6----| 
|-6---6-6-6-6-|--6---6-6-6--|--6---6-6--6----| 
|-7---7-7-7-7-|--7---7-7-7--|--7---7-7--7----| 
|-8---8-8-8-8-|--8---8-8-8--|--8---8-8--8----| 
|-------------|-------------|----------------| 
|-------------|-------------|----------------| 


                             Bb6                       Bb 
                                                                  ~~ 
  H.          +Q   Q   Q     Q  Q   Q    +Q   Q   Q    Q  Q  Q    H. 
|-----------|--------------|-----------|-------------|----------|------------| 
|-----------|--------------|-----------|-------------|----------|------------| 
|-----------|--------------|-----------|-------------|----------|------------| 
|-----------|----------0---|-----------|-------------|-0--------|------------| 
|-1---------|-(1)--3-------|-----------|------1---3--|----1-----|-1----------| 
|-----------|--------------|-1--3---3--|-(3)---------|-------3--|------------| 
| 
| Q   Q  Q     Q   E E E E   Q  E E Q     Q   E E Q    Q  Q  Q    Q   E E Q 
|-6---6--6--|--6---6-6-6-6-|-6--6-6-6--|--6---6-6-6--|-6--6--6--|-6---6-6-6--| 
|-6---6--6--|--6---6-6-6-6-|-8--8-8-8--|--8---8-8-8--|-6--6--6--|-6---6-6-6--| 
|-7---7--7--|--7---7-7-7-7-|-7--7-7-7--|--7---7-7-7--|-7--7--7--|-7---7-7-7--| 
|-8---8--8--|--8---8-8-8-8-|-8--8-8-8--|--8---8-8-8--|-8--8--8--|-8---8-8-8--| 
|-----------|--------------|-----------|-------------|----------|------------| 
|-----------|--------------|-----------|-------------|----------|------------| 


   ~~~~~~~~~~~~~~~~~~~~~~~~~~ 
  +H.           +H       +E  E   H. 
|-------------|----------------|-----------| 
|-------------|----------------|-----------| 
|-------------|----------------|-----------| 
|-------------|----------------|-----------| 
|-(1)---------|-(1)------(1)---|-1---------| 
|-------------|----------------|-----------| 
| 
|  Q   E E Q     Q   E E  Q      Q   Q  Q 
|--6---6-6-6--|--6---6-6--6----|-6---6--6--| 
|--6---6-6-6--|--6---6-6--6----|-6---6--6--| 
|--7---7-7-7--|--7---7-7--7----|-7---7--7--| 
|--8---8-8-8--|--8---8-8--8----|-8---8--8--| 
|-------------|----------------|-----------| 
|-------------|----------------|-----------| 


                 Bb6 
  +Q   Q   Q     Q  Q   Q    +Q   Q   Q 
|--------------|-----------|-------------| 
|--------------|-----------|-------------| 
|--------------|-----------|-------------| 
|----------0---|-----------|-------------| 
|-(1)--3-------|-----------|------1---3--| 
|--------------|-1--3---3--|-(3)---------| 
| 
|  Q   E E E E   Q  E E Q     Q   E E Q 
|--6---6-6-6-6-|-6--6-6-6--|--6---6-6-6--| 
|--6---6-6-6-6-|-8--8-8-8--|--8---8-8-8--| 
|--7---7-7-7-7-|-7--7-7-7--|--7---7-7-7--| 
|--8---8-8-8-8-|-8--8-8-8--|--8---8-8-8--| 
|--------------|-----------|-------------| 
|--------------|-----------|-------------| 


  Bb 
             ~~~~~~~~~~~~~~~~~~~~~~~~~~~ 
  Q  Q  Q    H.            +H. 
|----------|-------------|-------------| 
|----------|-------------|-------------| 
|-------0--|-------------|-------------| 
|-0--3-----|-3-----------|-(3)---------| 
|----------|-------------|-------------| 
|----------|-------------|-------------| 
| 
| Q  Q  Q    Q   E E E E    Q   E E Q 
|-6--6--6--|-6---6-6-6-6-|--6---6-6-6--| 
|-6--6--6--|-6---6-6-6-6-|--6---6-6-6--| 
|-7--7--7--|-7---7-7-7-7-|--7---7-7-7--| 
|-8--8--8--|-8---8-8-8-8-|--8---8-8-8--| 
|----------|-------------|-------------| 
|----------|-------------|-------------| 


 ~~~~~~~~~~~~~~ 
  +H       +E  E   H.          +Q   Q   Q 
|----------------|-----------|--------------| 
|----------------|-----------|--------------| 
|----------------|-----------|--------------| 
|-(3)------(3)---|-----------|----------0---| 
|----------------|-1---------|-(1)--3-------| 
|----------------|-----------|--------------| 
| 
|  Q   E E  Q      Q   Q  Q     Q   E E E E 
|--6---6-6--6----|-6---6--6--|--6---6-6-6-6-| 
|--6---6-6--6----|-6---6--6--|--6---6-6-6-6-| 
|--7---7-7--7----|-7---7--7--|--7---7-7-7-7-| 
|--8---8-8--8----|-8---8--8--|--8---8-8-8-8-| 
|----------------|-----------|--------------| 
|----------------|-----------|--------------| 


  Bb6                       Bb 
  Q  Q   Q    +Q   Q   Q    Q  Q  Q 
|-----------|-------------|----------| 
|-----------|-------------|----------| 
|-----------|-------------|----------| 
|-----------|-------------|-0--------| 
|-----------|------1---3--|----1-----| 
|-1--3---3--|-(3)---------|-------3--| 
| 
| Q  E E Q     Q   E E Q    Q  Q  Q 
|-6--6-6-6--|--6---6-6-6--|-6--6--6--| 
|-8--8-8-8--|--8---8-8-8--|-6--6--6--| 
|-7--7-7-7--|--7---7-7-7--|-7--7--7--| 
|-8--8-8-8--|--8---8-8-8--|-8--8--8--| 
|-----------|-------------|----------| 
|-----------|-------------|----------| 


  ~~~~~~~~~~~~~~~~~~~~~~~~~~~~~~~~~~~~~~~~~ 
  H.            +H.           +H       +E  E 
|-------------|-------------|----------------|| 
|-------------|-------------|----------------|| 
|-------------|-------------|----------------|| 
|-------------|-------------|----------------|| 
|-1-----------|-(1)---------|-(1)------(1)---|| 
|-------------|-------------|----------------|| 
| 
| Q   E E E E    Q   E E Q     Q   E E  Q 
|-6---6-6-6-6-|--6---6-6-6--|--6---6-6--6----|| 
|-6---6-6-6-6-|--6---6-6-6--|--6---6-6--6----|| 
|-7---7-7-7-7-|--7---7-7-7--|--7---7-7--7----|| 
|-8---8-8-8-8-|--8---8-8-8--|--8---8-8--8----|| 
|-------------|-------------|----------------|| 
|-------------|-------------|----------------|| 


  Bb 
   PM----------------------------------------- 
   Q   Q   Q     Q   Q    Q      Q   Q    Q 
|-------------|---------------|--------------| 
|-----15------|-----15--------|-----15-------| 
|---------15--|----------15---|----------15--| 
|-15----------|-15------------|-15-----------| 
|-------------|---------------|--------------| 
|-------------|---------------|--------------| 
| 
|  Q   Q   Q     Q   E E  E E    Q   E E  Q 
|--6---6---6--|--6---6-6--6-6-|--6---6-6--6--| 
|--6---6---6--|--6---6-6--6-6-|--6---6-6--6--| 
|--7---7---7--|--7---7-7--7-7-|--7---7-7--7--| 
|--8---8---8--|--8---8-8--8-8-|--8---8-8--8--| 
|-------------|---------------|--------------| 
|-------------|---------------|--------------| 


 ---------------------------------------| 
   Q   Q    Q     Q   Q   Q     Q   Q    Q 
|--------------|-------------|---------------| 
|-----15-------|-----15------|-----15--------| 
|----------15--|---------15--|----------15---| 
|-15-----------|-15----------|-15------------| 
|--------------|-------------|---------------| 
|--------------|-------------|---------------| 
| 
|  Q   E E  Q     Q   Q   Q     Q   E E  E E 
|--6---6-6--6--|--6---6---6--|--6---6-6--6-6-| 
|--6---6-6--6--|--6---6---6--|--6---6-6--6-6-| 
|--7---7-7--7--|--7---7---7--|--7---7-7--7-7-| 
|--8---8-8--8--|--8---8---8--|--8---8-8--8-8-| 
|--------------|-------------|---------------| 
|--------------|-------------|---------------| 


   PM---------------------------------------- 
   Q   Q    Q     Q   Q    Q     Q   Q   Q 
|--------------|--------------|-------------| 
|-----15-------|-----15-------|-----15------| 
|----------15--|----------15--|---------15--| 
|-15-----------|-15-----------|-15----------| 
|--------------|--------------|-------------| 
|--------------|--------------|-------------| 
| 
|  Q   E E  Q     Q   E E  Q     Q   Q   Q 
|--6---6-6--6--|--6---6-6--6--|--6---6---6--| 
|--6---6-6--6--|--6---6-6--6--|--6---6---6--| 
|--7---7-7--7--|--7---7-7--7--|--7---7---7--| 
|--8---8-8--8--|--8---8-8--8--|--8---8---8--| 
|--------------|--------------|-------------| 
|--------------|--------------|-------------| 


 -----------------------------------------| 
   Q   Q    Q      Q   Q    Q     Q   Q    Q 
|---------------|--------------|--------------*| 
|-----15--------|-----15-------|-----15-------*| 
|----------15---|----------15--|----------15--*| 
|-15------------|-15-----------|-15-----------*| 
|---------------|--------------|--------------*| 
|---------------|--------------|--------------*| 
| 
|  Q   E E  E E    Q   E E  Q     Q   E E  Q 
|--6---6-6--6-6-|--6---6-6--6--|--6---6-6--6--*| 
|--6---6-6--6-6-|--6---6-6--6--|--6---6-6--6--*| 
|--7---7-7--7-7-|--7---7-7--7--|--7---7-7--7--*| 
|--8---8-8--8-8-|--8---8-8--8--|--8---8-8--8--*| 
|---------------|--------------|--------------*| 
|---------------|--------------|--------------*| 


Duration Legend 
--------------- 
W - whole; H - half; Q - quarter; E - 8th; S - 16th; T - 32nd; X - 64th; a - acciaccatura 
+ - note tied to previous; . - note dotted; .. - note double dotted 
Uncapitalized letters represent notes that are staccato (1/2 duration) 
Irregular groupings are notated above the duration line 
Duration letters will always appear directly above the note/fret number it represents the 
duration for.  Duration letters with no fret number below them represent rests.  Multi- 
bar rests are notated in the form Wxn, where n is the number of bars to rest for.  Low 
melody durations appear below the staff 

Tablature Legend 
---------------- 
 h   - hammer-on 
 p   - pull-off 
 b   - bend 
 pb  - pre-bend 
 r   - bend release (if no number after the r, then release immediately) 
 /\  - slide into or out of (from/to "nowhere") 
 s   - legato slide 
 S   - shift slide 
  - natural harmonic 
n  - artificial harmonic 
n(n) - tapped harmonic 
 ~   - vibrato 
 tr  - trill 
 T   - tap 
 TP  - trem. picking 
 PM  - palm muting 
\n/  - tremolo bar dip; n = amount to dip 
 \n  - tremolo bar down 
 n/  - tremolo bar up 
/n\  - tremolo bar inverted dip 
 =   - hold bend; also acts as connecting device for hammers/pulls 
 <>  - volume swell (louder/softer) 
 x   - on rhythm slash represents muted slash 
 o   - on rhythm slash represents single note slash 

Misc Legend 
----------- 
 |  - bar 
||  - double bar 
||o - repeat start 
o|| - repeat end 
*|  - double bar (ending) 
 :  - bar (freetime) 
 $  - Segno 
 &  - Coda 
Tempo markers -  = BPM(8/16=s8/s16), where s8 = swing 8ths, s16 = swing 16ths 
		  

See also:

tabs Eric Clapton - Wonderful Tonight tabs Eric Clapton - Hey, Hey tabs The Beatles - Yesterday tabs Eagles - Hotel California tabs Deep Purple - Highway Star tabs The Beatles - Blackbird
e-chords

Other versions:

tabs The Shadows - My Resistance Is Low
auto scroll beats size up size down change color hide chords drawings
tab show chords e-chords YouTube Clip e-chords hide all tabs e-chords go to top tab

share