The Murlocs

Improving Solutions

The Murlocs

tabs

by  TARIKIKE

save to print version add songbook text version e-mail correct tuner
chordsukulelecavacokeyboardtabbassdrumsharmonicaflute Guitar Pro
close

there isn't a video lesson for this song

chords

Improving Solutions

	  		

e|-----------------| 
B|-----------------| 
G|-6-------6-------| 
D|-7-------7-------| 
A|-7-------7-------| 
E|-5-------5-------| 

e|-----------------|-----------------|-----------------|-----------------| 
B|-7-----------7---|-7-----------7---|-----------------|-----------------| 
G|-----7-----------|-----7-----------|-9---7---9---7---|-6---------------| 
D|---------7-------|---------9-------|-----------------|-----9---7---9---| 
A|-----------------|-----------------|-----------------|-----------------| 
E|-----------------|-----------------|-----------------|-----------------| 

e|-----------------|-----------------|-----------------|-----------------| 
B|-7-----------7---|-7-----------7---|-------------7---|-10--7-------7---| 
G|-----7-----------|-----7-----------|-9---7---9-------|---------9-------| 
D|---------7-------|---------9-------|-----------------|-----------------| 
A|-----------------|-----------------|-----------------|-----------------| 
E|-----------------|-----------------|-----------------|-----------------| 

Outro Variation 

e|-----------------|-----------------|-----------------|-----------------| 
B|-----------------|-----------------|-----------------|-----------------| 
G|-----------------|-7---------------|---------7---9---|-6---------------| 
D|-7-------9-------|-----9-----------|-----------------|-----9---7-------| 
A|-----------------|-----------------|-----------------|-------------9---| 
E|-----------------|-----------------|-----------------|-----------------| 

e|-----------------|-----------------|-----------------|-----------------|-----------------|-----------------| 
B|-----------------|-----------------|-------7---------|-----------------|-----------------|-----------------| 
G|-----------------|-7---------------|-----9---9-7-----|-----------------|-----------------|-7---------------| 
D|-7-------9-------|-----9-----------|-------------9---|-7-------7-------|-7-------7-------|-----------------| 
A|-----------------|-----------------|-----------------|-----------------|-----------------|-----------------| 
E|-----------------|-----------------|-----------------|-----------------|-----------------|-----------------| 
		  

See also:

tabs Ira! - Vitrine Viva tabs Deep Purple - Black Knight tabs Deep Purple - Demonds Eye tabs Deep Purple - Smoke on the Water (ver. 2) tabs Deep Purple - Clearly Quite Absurd tabs Ira! - Envelheço na Cidade (intro)
e-chords

Other versions:

tabs The Murlocs - Improving Solutions
auto scroll beats size up size down change color hide chords drawings
tab show chords e-chords YouTube Clip e-chords hide all tabs e-chords go to top tab

share