The Legend of Zelda

home > The Legend of Zeld...

Ocarina of Time - Gerudo Valley Tab

The Legend of Zelda

Difficulty: BeginnerBeginner

by HtagBgha

tuner correct add songbook print version text version save to e-mail
chordsukulelecavacokeyboardtabbassdrumsharmonicsflute Guitar Pro
chords

Ocarina of Time - Gerudo Valley

  		Symbols used: 
 h = hammer-on 
 p = pull-off 
 
Standard tuning - (low to high) EADGBe 
 
 
Guitar 1 plays the intro: 
 
  N.C. 
 
--------------5------4-7-9-- 
-----------7-------6-------- 
------4-7------------------- 
----6----------------------- 
--4------------------------- 
---------------------------- 
 
 
Guitar 2 then plays this (repeat during the entire song): 
 
   F#m                         D 
|--2-2-2-2--2--2-2-2-2-2--2--2-2-2-2-2--2--2-2-2-2-2--2--2- 
|--2-2-2-2--2--2-2-2-2-2--2--2-3-3-3-3--3--3-3-3-3-3--3--3- 
|--2-2-2-2--2--2-2-2-2-2--2--2-2-2-2-2--2--2-2-2-2-2--2--2- 
|--4-4-4-4--4--4-4-4-4-4--4--4-0-0-0-0--0--0-0-0-0-0--0--0- 
|---------------------------------------------------------- 
|---------------------------------------------------------- 
 
   E                           C#/F 
 --0-0-0-0--0--0-0-0-0-0--0--0-1-1-1-1--1--1-1-1-1-1--1--1--| 
 --0-0-0-0--0--0-0-0-0-0--0--0-2-2-2-2--2--2-2-2-2-2--2--2--| 
 --1-1-1-1--1--1-1-1-1-1--1--1-1-1-1-1--1--1-1-1-1-1--1--1--| 
 --2-2-2-2--2--2-2-2-2-2--2--2-3-3-3-3--3--3-3-3-3-3--3--3--| 
 -----------------------------------------------------------| 
 -----------------------------------------------------------| 
 
Then guitar 1 comes back: 
 
----2-4-5------2-4-5------2-4-5------2-4-5------0-2-4------0-2-4----2-4-2-1-- 
--2----------2----------3----------3----------0----------0------------------- 
----------------------------------------------------------------------------- 
----------------------------------------------------------------------------- 
----------------------------------------------------------------------------- 
----------------------------------------------------------------------------- 
 
Doubled by trumpet: 
 
----2-4-5------2-4-5------2-4-5------2-4-5------0-2-4------0-2-4----5-7-5-4-- 
--2----------2----------3----------3----------0----------0------------------- 
----------------------------------------------------------------------------- 
----------------------------------------------------------------------------- 
----------------------------------------------------------------------------- 
----------------------------------------------------------------------------- 
 
No trumpet: 
 
--------5-----4-----2-------------------0h2p0------- 
--2-----------------------2-----5-------------3----- 
---------------------------------------------------- 
---------------------------------------------------- 
---------------------------------------------------- 
---------------------------------------------------- 
 
--------4-----2-----0------------------------------- 
--0-----------------------3-----2-------3h5p3-2----- 
---------------------------------------------------- 
---------------------------------------------------- 
---------------------------------------------------- 
---------------------------------------------------- 
 
--------5-----4-----2-------------------0h2p0------- 
--2-----------------------2-----5-------------3----- 
---------------------------------------------------- 
---------------------------------------------------- 
---------------------------------------------------- 
---------------------------------------------------- 
 
 
-------------------------------------------- 
------------------7---5-----------3---2----- 
--2---4-----------4---4-----------1---1----- 
-------------------------------------------- 
-------------------------------------------- 
-------------------------------------------- 
 
--5-----4-----5-----4----------------------------- 
--------------------------2---5---------3-2-3----- 
-------------------------------------------------- 
-------------------------------------------------- 
-------------------------------------------------- 
-------------------------------------------------- 
 
--4-----2-----4-----0----------------------------- 
--------------------------3-----2-------3h5p3-2--- 
-------------------------------------------------- 
-------------------------------------------------- 
-------------------------------------------------- 
-------------------------------------------------- 
 
-------------------------------------------------- 
--------2----------2-----------3-----------3------ 
----1-2--------1-2---------1-2---------1-2-------- 
--4----------4-----------4-----------4------------ 
-------------------------------------------------- 
-------------------------------------------------- 
 
------------------4---2--------------------------- 
--3---------------5---3-----------0---2----------- 
--2---4---------------------------1---1----------- 
-------------------------------------------------- 
-------------------------------------------------- 
-------------------------------------------------- 
 
Trumpet solo tabbed for guitar: 
 
-----------------------7-------------------- 
-10-9-10--------7-9-10---10-9-10-9-10------- 
-------------------------------------------- 
-------------------------------------------- 
-------------------------------------------- 
-------------------------------------------- 
 
-------------------------------------------- 
-9-7-9----------7-9-10-9-7-9-7-------------- 
--------------9----------------10----------- 
-------------------------------------------- 
-------------------------------------------- 
-------------------------------------------- 
 
divisi 
-----------------------7-------------------- 
-10-9-10--------7-9-10---10-9-10-9-10------- 
-----------------------7-------------------- 
-11-9-11--------7-9-11---11-9-11-9-11------- 
-------------------------------------------- 
-------------------------------------------- 
 
-7----7-------------7-9-10-12-9-10-9-------- 
---10----------9-10------------------------- 
-7----7-------------7-9-11-13-1011-10------- 
---11----------9-11------------------------- 
-------------------------------------------- 
-------------------------------------------- 
 
After trumpet solo: 
 
------------------------------------------------------------------------ 
------------------------------------------------------------------------ 
------2--1-----2-------2--1-----2-------2--1-----2-------2--1-----2----- 
--4----------------4----------------0----------------0------------------ 
------------------------------------------------------------------------ 
------------------------------------------------------------------------ 
 
------------------------------------------------- 
------------------------------------3h5p3-2------ 
------4--3-----4-------4--3-----4---------------- 
--2----------------2----------------------------- 
------------------------------------------------- 
------------------------------------------------- 
 
Repeat from where guitar 1 came back in. 

	  

Full key step upFull key step up
Half key step upHalf key step up
Half key step downHalf key step down
Full key step downFull key step down
Search Paypal
auto scroll beats size up size down change color hide chords drawings
tab show chords e-chords YouTube Clip e-chords hide all tabs e-chords go to top tab