The Cure

home > The Cure

Lullaby Tab

The Cure

Difficulty: BeginnerBeginner

by hongkong

tuner correct add songbook print version text version save to e-mail
chordsukulelecavacokeyboardtabbassdrumsharmonicsflute Guitar Pro
chords

Lullaby

Year: 1989 - Album: Disintegration

  		Bueno, esta es mi transcripcion de esta rola que esta bien chida jeje 
tiene una parte con piano, pero no la eh sacado bueno. Here we goes! 
 
Guitarra1 : 
-|---4------4|---4------4|---0------0|---0------0| 
-|-----------|-----------|-----------|-----------| 
-|---4------4|---4------4|---4------4|---4------4| 
-|-----2-----|-----2-----|-----2-----|-----2-----| 
-|4-----4-4--|4-----4-4--|0-----0-0--|0-----0-0--| 
-|-----------|-----------|-----------|-----------| 
 
Guitarra2 : 
-|----------------------------4-------------4-------------| 
-|--------------------5-5-7-7---------5-7-7---------------| 
-|4-6-6-4-6-----4-6-6-----------6-------------6-------4-6-| 
-|--------------------------------------------------------| 
-|--------------------------------------------------------| 
-|--------------------------------------------------------| 
 
El primer riff se repite durante toda la cancion 
y el segundo en el intro y en algunas partes mas dentro de la cancion 
Aqui esta la letra. 
 
On candystripe legs the spiderman comes 
Softly through the shadow of the evening sun 
Stealing past the windows of the blissfully dead 
Looking for the victim shivering in bed 
Searching out fear in the gathering gloom and 
Suddenly!  
A movement in the corner of the room!  
And there is nothing I can do  
When I realise with fright  
That the spiderman is having me for dinner tonight! 
 
(Aqui va el intro de nuevo) 
 
Quietly he laughs and shaking his head  
Creeps closer now  
Closer to the foot of the bed  
And softer than shadow and quicker than flies  
His arms are all around me and his tongue in my eyes  
"Be still be calm be quiet now my precious boy  
Don't struggle like that or I will only love you more  
For it's much too late to get away or turn on the light  
The spiderman is having you for dinner tonight" 
 
And I feel like I'm being eaten  
By a thousand million shivering furry holes  
And I know that in the morning I will wake up  
In the shivering cold 
 
And the spiderman is always hungry... 
 
Intro otra vez hasta terminar la cancion. 
 
Eso es todo jeje. 
 
 

	  

Search Paypal
auto scroll beats size up size down change color hide chords drawings
tab show chords e-chords YouTube Clip e-chords hide all tabs e-chords go to top tab