The Cops

The Shake

The Cops

tabs

save to print version add songbook text version e-mail correct tuner
chordsukulelecavacokeyboardtabbassdrumsharmonicaflute Guitar Pro
close

there isn't a video lesson for this song

chords

The Shake

	  		Transcribed by Paul @ OzTabs ([email protected]) 
www.ozmusic-central.com.au/oztabs 
 
Transcribed: 20 May 2004 
 
Notes: Easy song to play along to, only 3 parts to learn :) 
Comments & corrections welcome. 
 
RIFF 1: 
E-|------------------------|- 
B-|------------------------|- 
G-|------------------------|- 
D-|------------------------|- 
A-|-7-5-----------------5--|- 
E-|-----h7-5--5--5--5-7----|- 
 
RIFF 2: 
E-|---------------------|- 
B-|---------------------|- 
G-|-9-9--9-9---7-7-7-7--|- 
D-|-9-9--9-9---7-7-7-7--|- 
A-|-7-7--7-7---5-5-5-5--|- 
E-|---------------------|- 
 
RIFF 3: 
E-|-------------------------------------|- 
B-|-------------------------------------|- 
G-|-5-------7-------9-9--9-9---7-7-7-7--|- 
D-|-5-------7-------9-9--9-9---7-7-7-7--|- 
A-|-3-------5-------7-7--7-7---5-5-5-5--|- 
E-|-------------------------------------|- 
 

		  

See also:

tabs Miscellaneous / Australiana - Collingwood Football Club Theme Song tabs Powderfinger - Bless My Soul tabs John Butler Trio - What You Want tabs The Vines - Get Free tabs Pete Murray - beautiful tabs Midnight Oil - Blue Sky Mine
e-chords

Other versions:

tabs Neal McCoy - The Shake tabs The Cops - The Shake tabs Brother Dege - The Shakedown
auto scroll beats size up size down change color hide chords drawings
tab show chords e-chords YouTube Clip e-chords hide all tabs e-chords go to top tab

share