The Cops

Foxtrot Yankee

The Cops

tabs

save to print version add songbook text version e-mail correct tuner
chordsukulelecavacokeyboardtabbassdrumsharmonicaflute Guitar Pro
close

there isn't a video lesson for this song

chords

Foxtrot Yankee

	  		Tabbed by Drusilla 
 
[email protected] 
 
e-5-5-5---1-1-1------- 
b-5-5-5---1-1-1------- 
g-5-5-5---2-2-2------- 
d-7-7-7---3-3-3------- 
a-7-7-7---3-3-3------- 
e-5-5-5-0-1-1-1-0-0-0- 
 
Intro/Chorus 
 
e-------------------- 
b-------------------- 
g-------------------- 
d-------------------- 
a-------------------- 
e-5-5-5-0-1-1-1-0-0-0 
 
Verse. Then back to intro riff with different strum. 
 
e-------------------- 
b-------------------- 
g-------------------- 
d-------------------- 
a-------------------- 
e-5-5-5-6-6-8-6-5-6-5 
 
Yeah yeah ... 
		  

See also:

tabs Miscellaneous / Australiana - Collingwood Football Club Theme Song tabs Powderfinger - Bless My Soul tabs John Butler Trio - What You Want tabs The Vines - Get Free tabs Pete Murray - beautiful tabs Midnight Oil - Blue Sky Mine
e-chords

Other versions:

tabs The Cops - Foxtrot Yankee
auto scroll beats size up size down change color hide chords drawings
tab show chords e-chords YouTube Clip e-chords hide all tabs e-chords go to top tab

share