The Cops

Mr Pretty Thing

The Cops

tabs

save to print version add songbook text version e-mail correct tuner
chordsukulelecavacokeyboardtabbassdrumsharmonicaflute Guitar Pro
close

there isn't a video lesson for this song

chords

Mr Pretty Thing

	  		Tabbed By Drusilla 
 
[email protected] 
 
e-------- 
b-------- 
g-----2-- 
d-2---2-- 
a-2-^-0-^ 
e-0-3---3 
 
Verse 
 
e-0-2------------------ -5/7- -------- 
b-1-3------------------ ----- -------- 
g-0-2------------------ ----- -2---1-- 
d-2-0------------------ ----- -2-^-0-^ 
a-3-0------------------ ----- -0-3-0-3 
e-0-0------------------ ----- -------- 
 
Chorus then intro riff  then   then    then back to the verse riff 
 
e------------------------ 
b------------------------ 
g------------------------ 
d------------------------ 
a------------------------ 
e-0-0-3-5-5-3-0-0-3-5-5-3 
 
palm mute - pretty things dressed up in my mind ... 
		  

See also:

tabs Miscellaneous / Australiana - Collingwood Football Club Theme Song tabs Powderfinger - Bless My Soul tabs John Butler Trio - What You Want tabs The Vines - Get Free tabs Pete Murray - beautiful tabs Midnight Oil - Blue Sky Mine
e-chords

Other versions:

tabs The Cops - Mr Pretty Thing
auto scroll beats size up size down change color hide chords drawings
tab show chords e-chords YouTube Clip e-chords hide all tabs e-chords go to top tab

share