The Clash

home > The Clash

Should I Stay Or Should I Go Tab

The Clash

Difficulty: BeginnerBeginner

tuner correct add songbook print version text version save to e-mail
chordsukulelecavacokeyboardtabbassdrumsharmonicsflute Guitar Pro
chords

Should I Stay Or Should I Go

Year: 1982 - Album: Essential Clash

(The Clash)

  		 Hi I'm trithor86 from Italy  (C.v.l.) 
  
 Should i stay or should i go-Clash 
  
 PART 1 
 
 e|----------------------------| 
 B|----------------------------| 
 G|---7--7--7--------5--5--7---| 
 D|---7--7--7--5--5--5--5--7---| 
 A|---5--5--5--5--5--3--3--5---| 
 E|------------3--3------------| 
 
 e|------------| 
 B|------------| 
 G|---7--7--7--| 
 D|---7--7--7--| 
 A|---5--5--5--| 
 E|------------| 
      x  x  x 
  
 e|----------------------------| 
 B|----------------------------| 
 G|---7--7--7--------5--5--7---| 
 D|---7--7--7--5--5--5--5--7---| 
 A|---5--5--5--5--5--3--3--5---| 
 E|------------3--3------------| 
 
 e|---5h6-----| 
 B|-----------| 
 G|-----------| 
 D|-----------| 
 A|-----------| 
 E|-----------| 
 
  PART 2 
 
 e|----------------------------------------------------------------------------| 
 B|----------------------------------------------------------------------------| 
 G|---7--7--7--7--7--7--7--7--7--7--7--7--7--(Ecc...)--------------------------| 
 D|---7--7--7--7--7--7--7--7--7--7--7--7--7--(Ecc...)--5--5--5--5--(Ecc...)----| 
 A|---5--5--5--5--5--5--5--5--5--5--5--5--5--(Ecc...)--5--5--5--5--(Ecc...)----| 
 E|----------------------------------------------------3--3--3--3--(Ecc...)----| 
 
 
  Good Bye ... 
 

	  

Search Paypal
auto scroll beats size up size down change color hide chords drawings
tab show chords e-chords YouTube Clip e-chords hide all tabs e-chords go to top tab