The City On Film

All The Wrong Notes

The City On Film

tabs nolevel nolevel

by  CARLLUZ

save to print version add songbook text version e-mail correct tuner
chordsukulelecavacokeyboardtabbassdrumsharmonicaflute Guitar Pro
close

there isn't a video lesson for this song

chords

All The Wrong Notes

	  		

Tuning: D  A D G B e 

(* = harmonic) 

Intro/Verse: 
|--------------5----------------------------------------------| 
|----------5-7---7---5---5-5-5-5-7-5--5--7--7--7--7-7-7--7----| 
|-0-2--/7--7---------7-7-7-7-7-7-7-7--7--7--7--7--7-6-6--6----| 
|-0-0--0-----------0---0---------------------------------0----| 
|--------------------------------------------------------0----| 
|-------------------------------------------------------------| 

Chorus: 
|--------------------------------------| 
|--------------------------------------| 
|--------------------------------------| 
|--------2-/-4--7*----------2-/-4--5*--| 
|-2p0-----------7*----2p0----------5*--| 
|-----0-------------------0------------| 

|-------------------12-----------------------10--| 
|---------------3/5-10-------------------3/5-10--| 
|-------------2-----11-----------------2-----11--| 
|-------2-/-4-------12-----------2-/-4-------12--| 
|-2p0---------------------2p0--------------------| 
|-----0-----------------------0------------------| 

Heavier section: 
|---------------------------------------| 
|---------------------------------------| 
|----------------7*---------------------| 
|----------------7*---------------------| 
|-4-2-0---4-2-0-------0--0-0-0-0-0-0-0--| 
|-0-0-0---0-0-0-------0--0-0-0-0-0-0-0--|  
		  

See also:

tabs Doa - Sexyest Girl tabs Deep Purple - Smoke on the water (intro) tabs Deep Purple - Highway Star tabs Albert Hammond Jr - Holiday tabs Deep Purple - Deep Purple - Smoke On The Water tabs Deep Purple - Ted The Mechanic
e-chords

Other versions:

tabs The City On Film - All The Wrong Notes
auto scroll beats size up size down change color hide chords drawings
tab show chords e-chords YouTube Clip e-chords hide all tabs e-chords go to top tab

share with facebook