The Choirboys

Run To Paradise (solo)

The Choirboys

tabs Expert expert

save to print version add songbook text version e-mail correct tuner
chordsukulelecavacokeyboardtabbassdrumsharmonicaflute Guitar Pro
close

there isn't a video lesson for this song

chords

Run To Paradise (solo)

	  		Gidday, This is my first attempt at tabbing a tune. I looked for the solo to Run to Paradise  
on the net but couldn't find it anywhere.  This is what I play at gigs and there's been no  
complaints.............well a few beer bottles but they were full so thats cool.   
  
E----5-----5-----------------------------------12---10--9---------9------- 
B----5-----5------5------------------5s10------------------12------------ 
G-----------------------7------------------------------------------------------ 
D------------------------------------------------------------------------------- 
A------------------------------------------------------------------------------- 
E------------------------------------------------------------------------------- 
  
  
E------------------------------------------------------------------------------ 
B---5---------5--------5----------------------------------------------------- 
G---7b9-----7b9-----7b9r7----5----------------------------------------- 
D----------------------------------------7------------------------------------- 
A------------------------------------------------------------------------------ 
E------------------------------------------------------------------------------ 
  
  
E------------------------------------------19b21-19b21-19b21r19-- 
B----------------17--19--17--19--17---------------------------------17 
G-16--18--19-------------------------------------------------------------- 
D------------------------------------------------------------------------------ 
A------------------------------------------------------------------------------ 
E------------------------------------------------------------------------------ 
  
Well thats all I play. I am happy with the 1st and 3rd parts (hold the last 19b21 for longer)  
but I am not too sure of the middle part.  It's not exact but its close and very easy to play.
The bit I have tabbed below is just the picking part at the end of each verse, over Dsus    
  
My only mild (constructive) criticism of this sight is that there are not enough solo's tabbed.  
Maybe you MAESTRO's out there should get to work. 
For those that don't know.............................Xparte' & Newstone rock!     
  
E...0...........0............................................................... 
B-------3------------3---------------------------------------------------------- 
G-----------2-------------2----------------------------------------------------- 
  

		  

Full key step upFull key step up
Half key step upHalf key step up
Half key step downHalf key step down
Full key step downFull key step down
hide glossary

See also:

tabs Miscellaneous / Australiana - Collingwood Football Club Theme Song tabs Powderfinger - Bless My Soul tabs John Butler Trio - What You Want tabs The Vines - Get Free tabs Pete Murray - beautiful tabs Midnight Oil - Blue Sky Mine
e-chords

Other versions:

tabs The Choirboys - Run To Paradise (solo)
auto scroll beats size up size down change color hide chords drawings
tab show chords e-chords YouTube Clip e-chords hide all tabs e-chords go to top tab

share