The Answer

Why You Smile

The Answer

tabs

by  CARLLUZ

save to print version add songbook text version e-mail correct tuner
chordsukulelecavacokeyboardtabbassdrumsharmonicaflute Guitar Pro
close

there isn't a video lesson for this song

chords

Why You Smile

	  		
   

Verse 
these E & G riffs drives the song,the chords are  
standard    
shapes,but played in a cool arpeggio style. 
  bass cue          Em       G         Em        G 
E|---------|------0--------3---------0---------3----| 
B|---------|-----0-0------0-0-------0-0-------0-0-3-| 
G|---------|----0---0----0---0-----0---0-----0------| 
D|---------|---2--------0---------2---------0-------| 
A|-2-0-----|--2--------2---------2---------2--------| 
E|-----3~~~|-0--------3---------0---------3----------| 


Chorus: 
   Am     G              Am     G              Am     G 
E|-0------3~~~~~~~|-0------3~~~~~~~|-0------3~~~~~~~~| 
B|-1------0~~~~~~~|-1------0~~~~~~~|-1------0~~~~~~~~| 
G|-2------0~~~~~~~|-2------0~~~~~~~|-2------0~~~~~~~~| 
D|-2------0~~~~~~~|-2------0~~~~~~~|-2------0~~~~~~~~| 
A|-0------2~~~~~~~|-0------2~~~~~~~|-0------2~~~~~~~~| 
E|-0------3~~~~~~~|-0------3~~~~~~~|-0------3~~~~~~~~| 
"  I know why you smile - etc! 

     F                  B7 
E|---1-------------------2-------------| 
B|---1-------------------0-------------| 
G|---2-------------------2-------------| 
D|---3-------------------0-------------| 
A|---x-------------------2-------------| 
E|---1-------------------x-------------| 
""at him!!              yes    i   do!!"" 


E|--------0--------3---------0---------3----------| 
B|-------0-0------0-0-------0-0-------0-0-3-(etc)-| 
G|------0---0----0---0-----0---0-----0------------| 
D|-----2--------0---------2---------0-------------| 
A|----2--------2---------2---------2--------------| 
E|---0--------3---------0---------3---------------| 
 | 
 |Organ Riff (Approx - you can play anything  
 |in a E pentatonic!) the harp riffs are also in a E pent) 
E|------------------------------------------------| 
B|//3-3~~~~~~------/3-/3--2H0-2H0-2#--2H0-2H0H------| 
G|//4-------------/4-/4----------------------2~~~~| 
D|------------------------------------------------| 
A|------------------------------------------------| 
E|------------------------------------------------| 

Enjoy!! 
		  

Full key step upFull key step up
Half key step upHalf key step up
Half key step downHalf key step down
Full key step downFull key step down
auto scroll beats size up size down change color hide chords drawings
tab show chords e-chords YouTube Clip e-chords hide all tabs e-chords go to top tab

share