The Answer

Never Too Late

The Answer

tabs Expert expert

by  EDSOOLIVEIRA

save to print version add songbook text version e-mail correct tuner
chordsukulelecavacokeyboardtabbassdrumsharmonicaflute Guitar Pro
close

there isn't a video lesson for this song

chords

Never Too Late

	  		E|------------------------------------------- 
B|---------------------------------1-3-1---x4 
G|--------------0-2p2p2p2p2p2p2-1h3-1---3-1v- 

e|-------------------- 
B|-------------------- 
G|-------------------- 
D|---------5-3-------- x3 
A|-------------0-5-3-0 
E|-------------------- 

e|--------------------- 
B|--------------------- 
G|--------------------- 
D|------5xx3xxx-------- 
A|--------------0-3-5--  repete até o final do verso 
E|--------------------- 
		  

auto scroll beats size up size down change color hide chords drawings
tab show chords e-chords YouTube Clip e-chords hide all tabs e-chords go to top tab

share