The Answer

One More Revival

The Answer

tabs

by  DEIVCAVALCANTI

save to print version add songbook text version e-mail correct tuner
chordsukulelecavacokeyboardtabbassdrumsharmonicaflute Guitar Pro
close

there isn't a video lesson for this song

chords

One More Revival

	  		

      
Intro 
      

D-----------------|-----------------|-----------------|-----------------| 
B-----------------|-----------------|-----------------|-----------------| 
G--7--7--x--2-----|--2--0--2------2-|--5--5--x--0-----|--0--2p0---------| 
D--7--7--x--2-----|--2--0--2------2-|--5--5--x--0-----|--0------2p0-----| 
G--7--7--x--2-----|--2--0--2------2-|--5--5--x--0-----|--0----------2p0-| 
D-----------------|-----------------|-----------------|-----------------| 


D-----------------|-----------------|-----------------|-----------------| 
B-----------------|-----------------|-----------------|-----------------| 
G--7--7--x--2-----|--2--0--2------2-|-4-5---4-5---4-5-|--4--0---0---0---| 
D--7--7--x--2-----|--2--0--2------2-|-4-5---4-5---4-5-|--4--0---0---0---| 
G--7--7--x--2-----|--2--0--2------2-|-4-5---4-5---4-5-|--4--0---0---0---| 
D-----------------|-----------------|-----------------|-----------------| 


      
Verse 
      

D-----------------|-----------------|-----------------|-----------------| 
B-----------------|-----------------|-----------------|-----------------| 
G--7--7--x-x-x----|-----7---7-7-----|--7--7--x-x-x----|-----7---7-7-----| 
D--7--7--x-x-x----|-----7---7-7-----|--7--7--x-x-x----|-----7---7-7-----| x2 
G--7--7--x-x-x----|-----7---7-7-----|--7--7--x-x-x----|-----7---7-7-----| 
D-----------------|-10----9-----7p0-|-----------------|-10----9-----7p0-| 


D-----------------|-----------------|-----------------|-----------------| 
B-----------------|-----------------|-----------------|-----------------| 
G--7--7--x-x-x----|--7--7-x-x-7--7--|-----7--x-x-x----|--7--7-x-x-7--7--| 
D--7--7--x-x-x----|--7--7-x-x-7--7--|-----7--x-x-x----|--7--7-x-x-7--7--| 
G--7--7--x-x-x----|--7--7-x-x-7--7--|-----7--x-x-x----|--7--7-x-x-7--7--| 
D-----------------|-----------------|-10--------------|-----------------| 


D-----------------|-----------------|-----------------|-----------------| 
B--8--7-----------|-----------------|-----------------|-----------------| 
G--7--7--x-x-x----|--7--7-x-x-7--7--|-----7--x-x-x----|--7--7-x-x-7--7--| 
D--9--7--x-x-x----|--7--7-x-x-7--7--|-----7--x-x-x----|--7--7-x-x-7--7--| 
G--7--7--x-x-x----|--7--7-x-x-7--7--|-----7--x-x-x----|--7--7-x-x-7--7--| 
D-----------------|-----------------|-10--------------|-----------------| 


D-----------------|-----------------|-----------------|-----------------| 
B-----------------|-----------------|-----------------|-----------------| 
G-----------------|-----------------|-----------------|-----------------| 
D--0--0--x-x-x----|--0--0-x-x-0--0--|-----0--x-x-x----|--0--0-x-x-0--0--| 
G--0--0--x-x-x----|--0--0-x-x-0--0--|-----0--x-x-x----|--0--0-x-x-0--0--| 
D-----------------|-----------------|--3--------------|-----------------| 


D-----------------|-----------------|-----------------|-----------------| 
B-----------------|-----------------|-----------------|-----------------| 
G--7--7--x-x-x----|-----7---7-7-----|--7--7--x-x-x----|-----7---7-7-----| 
D--7--7--x-x-x----|-----7---7-7-----|--7--7--x-x-x----|-----7---7-7-----| 
G--7--7--x-x-x----|-----7---7-7-----|--7--7--x-x-x----|-----7---7-7-----| 
D-----------------|-10----9-----7p0-|-----------------|-10----9-----7p0-| 


      
Pre-chorus 
      

                              
D----------0----0-|-------0---------|---0-------0-----|-0---0-0---0-0---| 
B----------3----3-|-------3---3-----|---3-------3-----|-5p3-3-5p3-3-5p3-| 
G----4-----4----4-|---4---4---4-----|---0-------0-----|-0---0-0---0-0---| 
D----4-----4----4-|---4---4---4-----|---0-------0-----|-0---0-0---0-0---| 
G----4-----4----4-|---4---4---4-----|---5----5--5--5--|-5---5-5---5-5---| 
D-----------------|-----------------|-----------------|-----------------| 


D----------0----0-|-------0---------|-----------------|-----------------| 
B----------3----3-|-------3---3-----|-----------------|-----------------| 
G----4-----4----4-|---4---4---4-----|---5-----5-----5-|-----0---0---0---| 
D----4-----4----4-|---4---4---4-----|---5-----5-----5-|-----0---0---0---| 
G----4-----4----4-|---4---4---4-----|---5-----5-----5-|-----0---0---0---| 
D-----------------|-----------------|-----------------|-----------------| 


      
Chorus 
      
x2 

D-----------------|-----------------|-----------------|-----------------| 
B-----------------|-----------------|-----------------|-----------------| 
G--7--7--x--2-----|--2--0--2------2-|--5--5--x--0-----|--0--2p0---------| 
D--7--7--x--2-----|--2--0--2------2-|--5--5--x--0-----|--0------2p0-----| 
G--7--7--x--2-----|--2--0--2------2-|--5--5--x--0-----|--0----------2p0-| 
D-----------------|-----------------|-----------------|-----------------| 


D-----------------|-----------------|-----------------|-----------------| 
B-----------------|-----------------|-----------------|-----------------| 
G--7--7--x--2-----|--2--0--2------2-|-4-5---4-5---4-5-|--4--0---0---0---| 
D--7--7--x--2-----|--2--0--2------2-|-4-5---4-5---4-5-|--4--0---0---0---| 
G--7--7--x--2-----|--2--0--2------2-|-4-5---4-5---4-5-|--4--0---0---0---| 
D-----------------|-----------------|-----------------|-----------------| 

      
Pre-solo 
      
x2 

D-----------------|-----------------|-----------------|-----------------| 
B---8---8---8-----|--8---8---8---8--|--8---8---8---8--|--8---8---8---8--| 
G---7---7---7-----|--7---7---7---7--|--7---7---7---7--|--7---7---7---7--|  
D---5---4---5-----|--5---5---5---5--|--5---5---5---5--|--5---5---5---5--| 
G---0---0---5-----|--5---5---5---5--|--5---5---5---5--|--5---5---5---5--| 
D-----------------|-----------------|-----------------|-----------------| 


      
Solo 
      
*   harmonies from 2nd guitar 

D-----------------|-----------------|-----------------|-----------------| 
B---15------------|-----12h13p12\10-|-12p10\8-10p8\7--|-8p7\5-3~~~~~~~--| 
G---14b-----------|-----------------|-----------------|-----------------| 
D-----------------|-----------------|-----------------|-----------------| 
G-----------------|-----------------|-----------------|-----------------| 
D-----------------|-----------------|-----------------|-----------------| 


D---------14--12--|-----------------|-----*17b--*17---|--*20b~~~~~~~----| 
B-----------------|-12--15~~~~~--15-|--17--17b---17---|---20b~~~~~~~----| 
G--14b-rb---------|-----------------|-----------------|-----------------| 
D-----------------|-----------------|-----------------|-----------------| 
G-----------------|-----------------|-----------------|-----------------| 
D-----------------|-----------------|-----------------|-----------------| 


D-----------------|-----------------|-----------------|-----------------| 
B-----------------|-----------------|-----------------|-----------*15b--| 
G----------7h9/11h12/14p12p11\9-11h12/14p12p11\9-11h12/14p12p11\9--14b--| 
D-------7h9-------|-----------------|-----------------|-----------------| 
G----7h9----------|-----------------|-----------------|-----------------| 
D-7h9-------------|-----------------|-----------------|-----------------| 


D-----------19----|-19--------------|----------*19b~~~~~~~~~~~~~~~~~----| 
B-15-17-17b----17b|----17p15--17b-15~~~-15--17--17b~~~~~~~~~~~~~~~~~----| 
G-----------------|---------16------|-----------------|-----------------| 
D-----------------|-----------------|-----------------|-----------------| 
G-----------------|-----------------|-----------------|-----------------| 
D-----------------|-----------------|-----------------|-----------------| 


      
Outro 
      

*Repeat chorus x2 
*Piano/vocals interlude until: 
D-----------------|-----------------|-----------------|-----------------| 
B-----------------|-----------------|-----------------|-----------------| 
G-----------------|-----------------|-----------------|-----------------| 
D-----------------|-----------------|-----------------|-----------------| 
G-----------------|-----------------|--5----5----5----|-5----5-----5----| 
D-----------------|-----------------|----3b---4b---5b-|---6b---7b-------| 


D-----------------|-----------------|-----------------|-----------------| 
B-----------------|-----------------|-----------------|-----------------| 
G--7---7--7-7--2--|--2---2--2--2--2-|--5---5--5-5--0--|--0---0--0--0--0-| 
D--7---7--7-7--2--|--2---2--2--2--2-|--5---5--5-5--0--|--0---0--0--0--0-| 
G--7---7--7-7--2--|--2---2--2--2--2-|--5---5--5-5--0--|--0---0--0--0--0-| 
D-----------------|-----------------|-----------------|-----------------| 


*Repeat above chords until: 
D-----------------|-----------------|-----------------|-----------------| 
B-----------------|-----------------|-----------------|-----------------| 
G--7---7----------|-----------------|--7---7-------0--|-----------------| 
D--7---7----------|-----------------|--7---7-------0--|-----------------| 
G--7---7----------|-----------------|--7---7-------0--|-----------------| 
D-----------------|-----------------|-----------------|-----------------| 


D-----------------|-----------------|-----------------|-----------------| 
B-----------------|-----------------|-----------------|-----------------| 
G--7---7----------|-----------------|--7---7----------|-----------------| 
D--7---7----------|-----------------|--7---7----------|-----------------| 
G--7---7----------|-----------------|--7---7----------|-----------------| 
D-----------------|-----------------|--------------5--|-------4---------| 


D-----------------|-----------------|-----------------|-----------------| 
B-----------------|-----------------|-----------------|-----------------| 
G-----------------|-----------------|-----------------|-----------------| 
D-----------------|-----------------|-----------------|-----------------| 
G-----------------|-----------------|-----------------|-----------------| 
D--0--------------|-----------------|-----------------|-----------------| 


D-----------------|-----------------|-----------------|-----------------| 
B-----------------|----------2------|-----------------|----------0------| 
G-----------7-----|------2-------2--|----------5------|------0-------0--| 
D------7----------|--2--------------|------5----------|--0--------------| 
G--7-----------2--|-----------------|--5-----------0--|-----------------| 
D-----------------|-----------------|-----------------|-----------------| 


D-----------------|-----------------|-----------------|-----------------| 
B-----------------|----------2------|-----------------|-----------------| 
G-----------7-----|------2-------2--|----------5---7--|-----------------| 
D------7----------|--2--------------|------5----------|-----------------| 
G--7-----------2--|-----------------|--5--------------|-----------------| 
D-----------------|-----------------|-----------------|-----------------| 


D-----------------|-----------------|-----------------|-----------------| 
B-----------------|----------2------|-----------------|----------0------| 
G-----------7-----|------2-------2--|----------5------|------0-------0--| 
D------7----------|--2--------------|------5----------|--0--------------| 
G--7-----------2--|-----------------|--5-----------0--|-----------------| 
D-----------------|-----------------|-----------------|-----------------| 


D-----------------|-----------------|-----------------|-----------------| 
B-----------------|----------2------|-----------------|-----------------| 
G-----------7-----|------2-------2--|--7--------------|-----------------| 
D------7----------|--2--------------|--5--------------|-----------------| 
G--7-----------2--|-----------------|--5--------------|-----------------| 
D-----------------|-----------------|-----------------|-----------------| 
		  

auto scroll beats size up size down change color hide chords drawings
tab show chords e-chords YouTube Clip e-chords hide all tabs e-chords go to top tab

share