The Aces

Daydream

The Aces

tabs nolevel nolevel

by  RENEJUNIOR

save to print version add songbook text version e-mail correct tuner
chordsukulelecavacokeyboardtabbassdrumsharmonicaflute Guitar Pro
close

there isn't a video lesson for this song

chords

Daydream

	  		Solo 

e|-------------------------------------|-------------------------------------| 
B|-16----------------------------------|-16----------------------------------| 
G|-----17--15--15h17-------15h17-------|-----17--15--15h17-------15h17-------| 
D|-------------------15h17-------15----|-------------------15h17-------15----| 
A|----------------------------------18-|----------------------------------18-| 
E|-------------------------------------|-------------------------------------| 

e|-------------------------------------|-------------------------------------| 
B|-16----------------------------------|-16-------------------------------18-| 
G|-----17--15--15h17-------15h17-------|-----17--15--15h17-------15h17-15----| 
D|-------------------15h17-------15----|-------------------15h17-------------| 
A|----------------------------------18-|-------------------------------------| 
E|-------------------------------------|-------------------------------------| 



************************************ 

| h  Hammer-on 

************************************ 
		  

See also:

tabs Deep Purple - Sometimes a Feel Like Screaming tabs Deep Purple - Mistreated tabs Deep Purple - Smoke on the Water (ver. 2) tabs Ira! - Vitrine Viva tabs Doa - Sexyest Girl tabs Deep Purple - Ted The Mechanic
e-chords

Other versions:

tabs Scandal - Daydream tabs Adam Torres - Daydream tabs The Aces - Daydream tabs All Time Low - Daydream Away tabs Die Toten Hosen - Daydreaming tabs Paramore - Daydreaming
auto scroll beats size up size down change color hide chords drawings
tab show chords e-chords YouTube Clip e-chords hide all tabs e-chords go to top tab

share with facebook