Tenacious D

Cosmic Shame

Tenacious D

tabs Intermediate intermediate

save to print version add songbook text version e-mail correct tuner
chordsukulelecavacokeyboardtabbassdrumsharmonicaflute Guitar Pro
close

there isn't a video lesson for this song

chords

Cosmic Shame

	  		 

e|--------------------2-------------------2----------2---------| 
B|---------5--------------5-------5-----------5---------5----5-| 
G|------------2------------------------------------------------| 
D|-----4----------4-----------4-------4------ ----4-------4----| 
A|-------------------------------------------------------------| 
E|-------------------------------------------------------------| 
 
e|----------------------------------------------------| 
B|----4------4h5p4--------------4----------4----------| 
G|-------4----------4-----6---------4---------4-----4-| 
D|-4-------4-----------4-----4----------4--------4----| 
A|----------------------------------------------------| 
E|----------------------------------------------------| 
 
e|x 
B|4  
G|4 
D|4 
A|x 
E|x 
 
  F#5  F#m7               B 
e|------------------------------------------------| 
B|---------------------------------4h5---5p4------| 
G|---------------------------------------x--------| 
D|--4---4-4---4--4--4--4---4--4-4--------4--------| 
A|--4---4-4---4--4--4--4---2--0-2--------2--------| 
E|--2---0-2---2--0--2--2p0------------------------| 
 

		  

Full key step upFull key step up
Half key step upHalf key step up
Half key step downHalf key step down
Full key step downFull key step down
hide glossary

See also:

tabs Avenged Sevenfold - Betrayed tabs John Williams - Star wars theme tabs Soundtracks - Jurassic Park - Theme tabs Avenged Sevenfold - I Wont See You Tonight Part 1 tabs Pavement - Grounded tabs Avenged Sevenfold - Walk
e-chords

Other versions:

tabs Tenacious D - Cosmic Shame
auto scroll beats size up size down change color hide chords drawings
tab show chords e-chords YouTube Clip e-chords hide all tabs e-chords go to top tab

share