Temas Diversos

home > Temas Diversos

Adeus Ano Velho, Feliz Ano Novo Tab

Temas Diversos

Difficulty: nolevelnolevel

by Mentalize

tuner correct add songbook print version text version save to e-mail
chordsukulelecavacokeyboardtabbassdrumsharmonicsflute Guitar Pro
chords

Adeus Ano Velho, Feliz Ano Novo

  				 

E|------2-2--0--------2-2-0----------0--2-3--5-5-5-7-7--5-3-2-0--| 
B|--------------3-----------3-----3-3----------------------------| 
G|---2------------2-2---------2-2--------------------------------| 
D|---------------------------------------------------------------| 
A|---------------------------------------------------------------| 
E|---------------------------------------------------------------| 



E|-------------5--------2-0----0---------| 
B|-5-5-7-8-7-5---7----3------3---3-2-3---| 
G|---------------------------------------| 
D|---------------------------------------| 
A|---------------------------------------| 
E|---------------------------------------| 
	  

Search Paypal
auto scroll beats size up size down change color hide chords drawings
tab show chords e-chords YouTube Clip e-chords hide all tabs e-chords go to top tab