Temas de TV

home > Temas de TV

Pica-pau Tab

Temas de TV

Difficulty: nolevelnolevel

by gustsilva

tuner correct add songbook print version text version save to e-mail
chordsukulelecavacokeyboardtabbassdrumsharmonicsflute Guitar Pro
chords

Pica-pau

  		(parte 1) 

(parte 2) 

(parte 1) 

(parte 2) 

(parte 3) 

(parte 4) 

(parte 1) 

(parte 2) 

Parte 1: 
 
E|-------9--12--9---------9--12--9--| 
B|----10--------------10------------| 
G|-9---------------9----------------| 
D|----------------------------------| 
A|----------------------------------| 
E|----------------------------------| 
 

Parte 2: 
 
E|--12--9--10--12--10--9--10--7--5--| 
B|----------------------------------| 
G|----------------------------------| 
D|----------------------------------| 
A|----------------------------------| 
E|----------------------------------| 
 

Parte 3: 
 
E|--12--9--10--12--10--9--10--9--12--| 
B|-----------------------------------| 
G|-----------------------------------| 
D|-----------------------------------| 
A|-----------------------------------| 
E|-----------------------------------| 
 

Parte 4: 
E|--12--13--14--13--14--10--10--12--13--12--13--10--9--10--12--12--9--8--7~-| 
B|--------------------------------------------------------------------------| 
G|--------------------------------------------------------------------------| 
D|--------------------------------------------------------------------------| 
A|--------------------------------------------------------------------------| 
E|--------------------------------------------------------------------------| 
	  

Search Paypal
auto scroll beats size up size down change color hide chords drawings
tab show chords e-chords YouTube Clip e-chords hide all tabs e-chords go to top tab