Tame Impala

Thats All For Everyone

Tame Impala

tabs

by  CARLLUZ

save to print version add songbook text version e-mail correct tuner
chordsukulelecavacokeyboardtabbassdrumsharmonicaflute Guitar Pro
close

there isn't a video lesson for this song

chords

Thats All For Everyone

	  		                  Tame Impala - That's All for Everyone (Fleetwood Mac Cover) 
            from the 2012 Fleetwood Mac tribute album Just Tell Me That You Want Me 

Verse: 
"That's all for everyone, that's all for me, 
That's all for everyone, must be just exactly what I need, 
I care for everyone, I cry for more, 
That's all for everyone, must be just exactly what I..." 
Synth: 
e|--9--------6---------9--------6--------6---------8--------5--------6--------| 
B|-11--------8--------11--------8--------6--------10--------6--------8--------| 
G|-10--------8--------10--------8--------7--------10--------7--------8--------| x2 
D|-11--------8--------11--------8--------8--------10--------8--------8--------| 
A|--9--------6---------9--------6--------8---------8-----------------6--------| 
E|---------------------------------------6------------------------------------| 


Bridge: 
"...need (that's all), 
I need somewhere to go (that's all), 
Must be what I need (that's all), 
I need someone to know, exactly what I..." 
Synth: 
e|-5--------3--------5--------6--------5--------3--------5----------------| 
B|-6--------4--------6--------8--------6--------4--------6----------------| 
G|-7--------3--------7--------8--------7--------3--------7----------------| 
D|-8--------3--------8--------8--------8--------3--------8----------------| 
A|----------------------------6-------------------------------------------| 
E|------------------------------------------------------------------------| 


Verse: 
"...need, I can't stand it, I can't deceive, 
That's all for everyone, must be just exactly what I need, 
So that's all for everyone, that's all for me, 
That's all for everyone, must be just exactly what I..." 
Synth and guitar: 
e|--9--------6---------9--------6--------6---------8--------5--------6--------| 
B|-11--------8--------11--------8--------6--------10--------6--------8--------| 
G|-10--------8--------10--------8--------7--------10--------7--------8--------| x2 
D|-11--------8--------11--------8--------8--------10--------8--------8--------| 
A|--9--------6---------9--------6--------8---------8-----------------6--------| 
E|---------------------------------------6------------------------------------| 


Bridge: 
"...need (that's all), 
I need somewhere to go (that's all), 
Must be what I need (that's all), 
I need someone to know, exactly what I..." 
Synth: 
e|-5--------3--------5--------6--------5--------3--------5----------------| 
B|-6--------4--------6--------8--------6--------4--------6----------------| 
G|-7--------3--------7--------8--------7--------3--------7----------------| 
D|-8--------3--------8--------8--------8--------3--------8----------------| 
A|----------------------------6-------------------------------------------| 
E|------------------------------------------------------------------------| 


Verse: 
"...need, oooooooooooh, 
Aaaaaahhhhhh, 
Oooooooooooh, 
Aaaaaahhhhhh, 
So that's all for everyone, must be just exactly what I..." 
Synth: 
e|--9--------6---------9--------6--------6---------8--------5--------6--------| 
B|-11--------8--------11--------8--------6--------10--------6--------8--------| 
G|-10--------8--------10--------8--------7--------10--------7--------8--------| x2 
D|-11--------8--------11--------8--------8--------10--------8--------8--------| 
A|--9--------6---------9--------6--------8---------8-----------------6--------| 
E|---------------------------------------6------------------------------------| 


Bridge/outro: 
"...need (that's all), 
I need somewhere to go (that's all), 
Must be what I need (that's all), 
I need someone to know, (that's all) 
Exactly what I need (that's all) 
That's all, that's all" 
Synth and guitar: 
e|-5--------3--------5--------6--------5--------3--------5--------6--------| 
B|-6--------4--------6--------8--------6--------4--------6--------8--------| 
G|-7--------3--------7--------8--------7--------3--------7--------8--------| x2 
D|-8--------3--------8--------8--------8--------3--------8--------8--------| 
A|----------------------------6-----------------------------------6--------| 
E|-------------------------------------------------------------------------| 


Outro: 
Synth keep playing the chords while a guitar makes sounds with a delay pedal: 
e|-5--------3--------5--------6--------5--------3--------5--------6--------| 
B|-6--------4--------6--------8--------6--------4--------6--------8--------| 
G|-7--------3--------7--------8--------7--------3--------7--------8--------| x2 
D|-8--------3--------8--------8--------8--------3--------8--------8--------| 
A|----------------------------6-----------------------------------6--------| 
E|-------------------------------------------------------------------------| 

e|-5--------3--------5--------6--------| 
B|-6--------4--------6--------8--------| 
G|-7--------3--------7--------8--------| 
D|-8--------3--------8--------8--------| 
A|----------------------------6--------| 
E|-------------------------------------| 

Fade out. 



************************************ 

| /   slide up 
| \   slide down 
| h   hammer-on 
| p   pull-off 
| ~   vibrato 
| +   harmonic 
| x   Mute note 
| .   staccato 
| b   Bend 
| pb  Pre-bend 
| br  Bend release 
| pbr Pre-bend release 
| brb Bend release bend 

************************************ 
		  

auto scroll beats size up size down change color hide chords drawings
tab show chords e-chords YouTube Clip e-chords hide all tabs e-chords go to top tab

share