Sun Kil Moon

You Are My Sun

Sun Kil Moon

tabs

by  VICTBORGES

save to print version add songbook text version e-mail correct tuner
chordsukulelecavacokeyboardtabbassdrumsharmonicaflute Guitar Pro
close

there isn't a video lesson for this song

chords

You Are My Sun

	  		Tuning from Standard: 
1st String - Drop to D 
2nd String - Drop to A 
3rd String - Drop to E 
4th String - Standard D 
5th String - Standard A 
6th String - Drop to D 

Place  
 

PLEASE NOTE: From careful examination I've determined the parts of this song are improvised throughout. 
There are many variations of each segment so I've simply tabbed the first time each segment appears. It  
sounds fine to play it all this way or using this tab as a guide and making your own melodies. Either way, 
this tab doesn't represent 100% of all variations but will definitely provide you with what you need to 
perform it convincingly. Hope you enjoy. 

Order of playing: 
Intro 
Verse Part 1 
      Part 2 
      Part 1 
      Part 2 
      Part 2 
      Part 1 
      Part 2 
Pre-Chorus 
Chorus Part 1 
       Part 2 
       Part 1 
       Part 2 
Pre-Outro 
Outro 


Tab: 
Intro 
D|-0---------0-----------0-------0-|-----------0-------------------0-| 
A|-------0-----0-----0-------0-----|-------0-----0h2---2---0---0-----| 
E|---------------2-----2-----------|-----3---------------3-------3---| 
D|-----4-----------0-------0---2---|---------------------------------| 
A|---------------------------------|-3-------3-------3-------3-------| 
D|-0-------0-----------------------|---------------------------------| 

D|-----------0-------------------0-|---------------0---------------0-| 
A|-------0-----------0---0---0-----|-------0---2-------2---0---0-----| 
E|-------------0h2-----2-----------|-----3-------3-------3-------3---| 
D|-----4-----------0-------0---2---|---------------------------------| 
A|---------------------------------|-3-------3-------3-------3-------| 
D|-0-------0-----------------------|---------------------------------| 


Verse 
Part 1 
D|-----------0-------------------0-|---------------0---------------0-| 
A|-------0-----------0---0---0-----|-------0---2-------2---0---2-----| 
E|-------------0h2-----2-----------|-----3-------3-------3-------3---| 
D|-----4-----------0-------0---2---|---------------------------------| 
A|---------------------------------|-3-------3-------3-------3-------| 
D|-0-------0-----------------------|---------------------------------| 

D|-----------0-------------------0-|---------------0-------0-------0-| 
A|-------0-----------0---0---0-----|-------0---2-------2-------2-----| 
E|---------------0-2---2-----------|-----3-------3-------3-------3---| 
D|-----4-------0-----------0---2---|---------------------------------| 
A|---------------------------------|-3-------3-------3-------3-------| 
D|-0-------0-----------------------|---------------------------------| 

D|-----------0-------------------0-|---------------0---------------0-| 
A|-------0-----------0---0---0-----|-------0---2-------0---0---0-----| 
E|---------------0-2---2-----------|-----3-------3-------3-------3---| 
D|-----4-------0-----------0---2---|---------------------------------| 
A|---------------------------------|-3-------3-------3-------3-------| 
D|-0-------0-----------------------|---------------------------------| 

D|-----------0-----------0-------0-|---------------0---------------0-| 
A|-------0-----------0-------0-----|-------0---2-------0h2-----0-----| 
E|---------------0-2---2-----------|-----3-------3---------3-----3---| 
D|-----4-------0-----------0---2---|---------------------------------| 
A|---------------------------------|-3-------3-------3-------3-------| 
D|-0-------0-----------------------|---------------------------------| 

Part 2 
D|-----------------------0-------0-|-----------------------0---0-----| 
A|-------0---0-------0-------0-----|---0---0---0-------0---------0---| 
E|-------------0h3-----3-------3---|-------------0h2-----2---------0-| 
D|-----2---------------------------|-----0---------------------------| 
A|---------------------------------|---------------------------------| 
D|-2-------2-------2-------2-------|-0-------0-------0-------0-------| 

D|---------------0-----------0-----|---------------0---------------0-| 
A|-------0---0-------0---0---------|-------0---0-------0---0---0-----| 
E|-------------3-------3-------3---|-------------2-------2-------0---| 
D|-----2---------------------------|-----0---------------------------| 
A|---------------------------------|---------------------------------| 
D|-2-------2-------2-------2-------|-0-------0-------0-------0-------| 


Pre-Chorus 
D|-----------------------0-------0-|---------------0---------------0-| 
A|-------0---0-------0-------0-----|-------0---2-------0---0---0-----| 
E|-------------0h2-----5-----------|-----3-------3-------3-------3---| 
D|-----4---4-------------------2---|---------------------------------| 
A|---------------------------------|-3-------3-------3-------3-------| 
D|-0---------------0-------0-------|---------------------------------| 

D|-------0---------------0-------0-|-------0---0-----------0-------7-| 
A|-----------0-------0-------0-----|---0h2-------0h2-----0-----0-----| 
E|-------------0h2-----2-------5---|-------------------5---------5---| 
D|-----4-----------0---------------|-------------------------2-------| 
A|---------------------------------|-3-------3-------3---------------| 
D|-0-------0--------------0--------|---------------------------------| 


Chorus 
Part 1 
D|-------5-------4-------0---------|-------0-------0-------0-------0-| 
A|---0-------0-------0-------0---4-|---0h4-------5-----7-------0h9---| 
E|---------------------------------|-----------0---------0-----------| 
D|-----0---------------0-------0---|---------------------------------| 
A|---------7-------5-------5-------|---------------------------------| 
D|-0-----------0-------------------|-4-------5-------7-------9-------| 

D|---------------0---------------0-|-------4---4---0---4-----------7-| 
A|---4---0---4-------4---0---4-----|---4---------0---------0---0-----| 
E|-----2-------2-------0-------0---|-----2-----------------------0---| 
D|---------------------------------|-----------------5---2-----------| 
A|-2-------2-----------------------|-2-------2---------------0-------| 
D|-----------------5-------2-------|---------------------------------| 

D|-------5-------4-------0---------|-------0-------0-------0-------0-| 
A|---0-------0-------0-------0---4-|---0h4-------5-----7-------0h9---| 
E|---------------------------------|-----------0---------0-----------| 
D|-----0---------------0-------0---|---------------------------------| 
A|---------7-------5-------5-------|---------------------------------| 
D|-0-----------0-------------------|-4-------5-------7-------9-------| 

D|---------------0---------------0-|-------4---4---0---4-------4---5-| 
A|---4---0---4-------4---0---4-----|---4---------0---------0---------| 
E|-----2-------2-------0-------0---|-----2-----------------------0---| 
D|---------------------------------|-----------------5---2-----------| 
A|-2-------2-----------------------|-2-------2---------------0-------| 
D|-----------------5-------2-------|---------------------------------| 

D|---4---4---0-----| 
A|---------------0-| 
E|-----0-------0---| 
D|-----------------| 
A|-0-------0-------| 
D|-----------------| 

Part 2 
D|-----------0---7-------2---------|-----------------------0---------| 
A|---2---4-2---0-----0-------0---4-|---5---4---0---2---2-------0---0-| 
E|-----2---------------0-------0---|-----0---0-----------0-------0---| 
D|---------------------------------|---------------------------------| 
A|-2-------------------------------|-------------2-------------------| 
D|-----------------5-------5-------|-4---------------5-------5-------| 


D|-----------0---4-----------------|-----------0---2-------0-------7-| 
A|---2---3-2---0-----2---2---0---0-|---2---4-2---0-----0-------0-----| 
E|-----3---------------2-------0---|-----3---------------------------| 
D|---------------------------------|---------------------------------| 
A|-3---------------2-------2-------|-----------------4---4---4---4---| 
D|---------------------------------|-2-------------------------------| 


Pre-Outro 
D|-------5-------4-------0---------|-------0-------0-------0-------0-| 
A|---0-------0-------0-------0---4-|---0h4-------5-----7-------0h9---| 
E|---------------------------------|-----------0---------0-----------| 
D|-----0---------------0-------0---|---------------------------------| 
A|---------7-------5-------5-------|---------------------------------| 
D|-0-----------0-------------------|-4-------5-------7-------9-------| 

D|---------------0---------------0-|-------4---4---0---4-------4---5-| 
A|---4---0---4-------4---0---4-----|---4---------0---------0---------| 
E|-----2-------2-------0-------0---|-----2-----------------------0---| 
D|---------------------------------|-----------------5---2-----------| 
A|-2-------2-----------------------|-2-------2---------------0-------| 
D|-----------------5-------2-------|---------------------------------| 

D|---4---4---0-----| 
A|---------------0-| 
E|-----0-------0---| 
D|-----------------| 
A|-0-------0-------| 
D|-----------------| 

D|-----------0---7-------2---------|-----------------------0---------| 
A|---2---4-2---0-----0-------0---4-|---5---4---0---2---2-------0---0-| 
E|-----2---------------0-------0---|-----0---0-----------0-------0---| 
D|---------------------------------|---------------------------------| 
A|-2-------------------------------|-------------2-------------------| 
D|-----------------5-------5-------|-4---------------5-------5-------| 

D|-----------0---4-----------------|-----------0---2-------2h4p2-0---| 
A|---2---3-2---0-----2---2---0---0-|---2---4-2---0-------0---------4-| 
E|-----3---------------2-------0---|-----3-------------0-------------| 
D|---------------------------------|---------------------------------| 
A|-3---------------2-------2-------|-----------------4---------------| 
D|---------------------------------|-2-------------------------------| 


Outro 
D|---7------------------------9p7--|---------------------------------| 
A|-5-------------------------------|-------------------------7--9----| 
E|-------------10---9--7-----------|---------10---9--7-------9-------| 
D|--------------9---7--5-----------|----------9---7--5-------7-------| 
A|---------------------------------|-------------------------7-------| 
D|---------0-----------------------|---0-----------------------------| 


D|---------------------------------|---------------------------------| 
A|---2----4-5-----7--------5--4----|-----5----------4--2---4---------| 
E|---------------------------------|---------------------------------| 
D|---------------------------------|---------------------------------| 
A|-2-------------------------------|---------------------------------| 
D|--------------6------------------|---5-----------------------------| 

D|-----------------------4-------------------------------------------| 
A|-------2h4h5--2h4h5----------4h5p4p2-----4---2----4h5p4p2-4--------| 
E|-------------------------------------------------------------------| 
D|-------------------------------------------------------------------| 
A|-2-----------------------------------------------------------------| 
D|-------------------------------------------------------------------| 

D|-----------------------4-------------------------------------------| 
A|-------2h4h5--2h4h5----------4h5p4p2-----4---2----4h5p4p2-4--------| 
E|-------------------------------------------------------------------| 
D|-------------------------------------------------------------------| 
A|-2-----------------------------------------------------------------| 
D|-------------------------------------------------------------------| 

D|-----------------------9-------------------------------------------| 
A|------7h9h10--7h9h10---------9h10p9p7----9---7----9h10p9p7-9-------| 
E|-------------------------------------------------------------------| 
D|-------------------------------------------------------------------| 
A|-7-----------------------------------------------------------------| 
D|-------------------------------------------------------------------| 

D|-----------------------4-------------------------------------------| 
A|-------2h4h5--2h4h5----------4h5p4p2-----4---2----4h5p4p2-4--------| 
E|-------------------------------------------------------------------| 
D|-------------------------------------------------------------------| 
A|-2-----------------------------------------------------------------| 
D|-------------------------------------------------------------------| 

D|-----------------------2-------------------------------------------| 
A|-------0h2h3--0h2h3----------2h3p2p0-----2---0----2h3p2p0-2--------| 
E|-------------------------------------------------------------------| 
D|-3-----------------------------------------------------------------| 
A|-------------------------------------------------------------------| 
D|-------------------------------------------------------------------| 

D|--------------------------------------------------2h3p2p0--2--0----| 
A|--------------0h2h3----2-----2h3p2p0-----2----0--------------------| 
E|-------------------------------------------------------------------| 
D|-------2h4h5-------------------------------------------------------| 
A|-3-----------------------------------------------------------------| 
D|-------------------------------------------------------------------| 

D|-------------------------------------------------------------------| 
A|-------------------------------------------------------------------| 
E|-----------------------5-------------------------------------------| 
D|--------------2h3h5-----------5h3p2--0----2------------------------| 
A|-------2h3h5-----------------------------------3p2p0----3--2-------| 
D|-3-----------------------------------------------------------------| 

D|-------------------------------------------------------------------| 
A|-----------------------5------5p4p2p0--2---------------------------| 
E|--------------0h2h5-------------------------3p2p0----3--2----------| 
D|-------0h2h4------------------------------------------------0------| 
A|-------------------------------------------------------------------| 
D|-0-----------------------------------------------------------------| 



************************************ 

| h  Hammer-on 
| p  Pull-off 

************************************ 
		  

Full key step upFull key step up
Half key step upHalf key step up
Half key step downHalf key step down
Full key step downFull key step down
auto scroll beats size up size down change color hide chords drawings
tab show chords e-chords YouTube Clip e-chords hide all tabs e-chords go to top tab

share