Stratovarius

Luminous

Stratovarius

tabs

by  GUIGRAZ

save to print version add songbook text version e-mail correct tuner
chordsukulelecavacokeyboardtabbassdrumsharmonicaflute Guitar Pro
close

there isn't a video lesson for this song

chords

Luminous

	  		STRATOVARIUS - LUMINOUS (From the album: ELEMENTS PT. 2) * 
************************************************************ 
 Music and words by: Timo Tolkki 
 
Transcribed by: Niclas Buss 
Day tabbed: 19.12.2003 
Homepage: http://www.metalprovider.com/thedarktower/enter.htm 
          http://www.northernflame.tk 
Email: [email protected] 
 
Please mail me if you can find mistakes! 
 
----------------------------------------- 
 
 Tune Down 1/2 Step!  
 
  Clean Sound (with effects)                          Verse 1 
E-----------------------------------------------------------------------------------| 
B-------0-2---------0-2---------0-2---------0-2------|------0-2---------0-2---------| 
G-----------2~----------2~----------2~----------2~---|*---------2~----------2~------| 
D-----2-----------2-----------2-----------2----------|*---2-----------2------------2| 
A---0-----------0-----------0-----------0------------|--0-----------0---------------| 
E-------------------------------------------------------------------------------\3--| 
 
                                                                               Choru 
E-----------------------5~---0-----------5~--0--------------------------------------| 
B-0-2~------0-2~------3--------3-------3-------3-------0-2----------0-2------|------| 
G-------------------2----------------2---------------------2~-----------2~--*|------| 
D---------2-------0----------------0-----------------2------------2---------*|--3~--| 
A--------------------------------------------------0------------0------------|--3~--| 
E-------3-----------------------------------------------------------------------1~--| 
 
 s (Dist.on)                                                            Guitar Solo 
E-----------------------------------------------------------------------------------| 
B-------------------------|-------------|------------|------0-2-------|--slight-----| 
G-------------------------|---Verse-2---|---Chorus---|----------2~~---|---A.H.------| 
D----------5~--------7~---|-------------|------------|----2-----------|---9b-(10)-r-| 
A--2~------5~--------7~---|-------------|------------|--0-------------|-------------| 
E--1~------3~--------5~-------------------------------------------------------------| 
 
 (with Wah Wah) 
E-----------------------------------------------------------------------------------| 
B------------slight------------------------------------------------------12b-(13)-r-| 
G-------------A.H.--------------/9~--7h9p7\6--7--7/9--------------------------------| 
D-9~-5---------9b(10)r9~-5----------------------------7~----9~--11-\-7~-------------| 
A-------7~~-----------------7~------------------------------------------------------| 
E-----------------------------------------------------------------------------------| 
 
E-------------/-19b-(20)-r19~-15-------------------------17~-----------15~----------| 
B-12~-10--------------------------17~--15b-(17)-r15-14~-------14~-12~-------12~-11~-| 
G---------9~------------------------------------------------------------------------| 
D-----------------------------------------------------------------------------------| 
A-----------------------------------------------------------------------------------| 
E-----------------------------------------------------------------------------------| 
 
                                    with Lead Fill     Outro 
E--14~---------------13~-------12~~-------------------------------------------------| 
B-------11~-10~-10~-------10~------------------------|-------0-2---------0-2--------| 
G----------------------------------------------------|*----------2~----------2~-----| 
D----------------------------------------------------|*----2-----------2-----------2| 
A----------------------------------------------------|---0-----------0-----------0--| 
E-----------------------------------------------------------------------------------| 
 
E-----------------------|| 
B-0-2---------0-2-------|| repeat 
G-----2~----------2~---*|| and 
D-----------2----------*|| fade out 
A---------0-------------|| 
E-----------------------|| 
 
-------------------------------------------------------------------------------------- 
 
  Lead Fill 
     T                T                T                T 
E---17p12p10p9h10h12-17p12p10p9h10h12-17p12p10p9h10h12-17p12p10p9h10h12.....--|| 
B------------------------------------------------------------repeat-----------|| 
G--------------------------------------------------------------many-----------|| end 
D------------------------------------------------------------times------------|| 
A-----------------------------------------------------------------------------|| 
E-----------------------------------------------------------------------------|| 
 
  Rhythm Guitar during Guitar Solo 
E---------------------------------------------------------------------------|| 
B---------------------------------------------------------------------------|| 
G----5-----5-----2-----2-------5-----5----------2----------------------2~---|| end 
D----5-----5-----2-----2-------5-----5----------2-----5-----4-----3----2~---|| 
A----3-----3-----0-----0---2~--3-----3-----2~---0-----5-----4-----3----0~---|| 
E-----------------------------------------------------3-----2-----1---------|| 
 
-------------------------------------------------------------------------------------- 
 
======================= 
=TABLATURE EXPLANATION= 
======================= 
 
A.H. = Artificial harmonic 
 
<<<< = Volume swell effect 
 
>>>> = Volume decrease effect 
 
pm..| = Palm mute 
 
h = hammer on 
 
p = pull off 
 
/ = slide up 
 
\ = slide down 
 
~ = Vibrato 
 
b() = Bend 
 
x\ = Pick slide 
 
-------- 
-------- 
---12--- = Tremolo pick 
----/--- 
----/--- 
----/--- 
 
---.--- 
--12--- = Staccato 
------- 
------- 
------- 
 
|     | 
|     | 
|*   *| = repeat from * to * 
|*   *|  
|     | 
 
LYRICS: 
**************************************************** 
 
Luminous we shine 
Like the stars on the evening sky 
Through the universe 
And centuries 
They are calling 
Hear them calling 
Luminous moonshine 
Is guiding my travel through life 
Through the winds of time 
I hear angels calling 
Hear them calling 
 
No tree has branches so foolish 
As to fight among themselves 
We share the same biology 
We are one 
We are luminous 
 
Luminous when we die 
We return to the great ocean 
Of the living energy 
It is calling 
Hear it calling 
Luminous my life 
A breath in the cosmic play 
Without reason or rhyme 
It is calling Hear it calling 
 
No tree has branches so foolish 
As to fight among themselves 
We share the same biology 
We are one 
We are luminous 

		  

See also:

tabs Stratovarius - Dreamspace tabs Nightwish - Ghost Love Score tabs Nightwish - Elvenpath tabs HIM - Sweet Pandemonium tabs Stratovarius - Hold On to Your Dream tabs Nightwish - LAPPI 1: ERÄMAAJÄRVI
e-chords

Other versions:

tabs Stratovarius - Luminous
auto scroll beats size up size down change color hide chords drawings
tab show chords e-chords YouTube Clip e-chords hide all tabs e-chords go to top tab

share