Stratovarius

Liberty

Stratovarius

tabs Expert expert

by  GUIGRAZ

save to print version add songbook text version e-mail correct tuner
chordsukulelecavacokeyboardtabbassdrumsharmonicaflute Guitar Pro
close

there isn't a video lesson for this song

chords

Liberty

	  		STRATOVARIUS - LIBERTY (From the album: ELEMENTS PT. 2) * 
*********************************************************** 
 Music and words by: Timo Tolkki 
 
Transcribed by: Niclas Buss 
Day tabbed: 26.1.2004 
Homepage: http://www.metalprovider.com/thedarktower/enter.htm 
          http://www.northernflame.tk 
Email: [email protected] 
 
Please mail me if you can find mistakes! 
 
----------------------------------------- 
 
 Tune Down 1/2 Step!  
 
  Intro (Gtr.1 with Wah Wah) 
E-----------------------------------------------------------------------------------| 
B--\9--10--12--------------------/-16b(17)~--r16--14-h16p14---------------12-12~----| 
G--------------9--8-h9p8------------------------------------16-13~--\-9~---------9--| 
D------------------------11--9------------------------------------------------------| 
A-----------------------------------------------------------------------------------| 
E-----------------------------------------------------------------------------------| 
 
E-----------------------------------------------------------------------------------| 
B-12b(14)~--r12~~--9-10--9-h10p9--7-----9~-h10p9-7~-/-9--10--12--------------------/| 
G------------------------------------9---------------------------9--8-h9p8----------| 
D---------------------------------------------------------------------------11--9---| 
A-----------------------------------------------------------------------------------| 
E-----------------------------------------------------------------------------------| 
 
E-----------------------------------------------------------------------------------| 
B-16b(17)~--r16--14-h16p14---------------12-12~---12b(14)~--r12-12~~---9-9b(10)r9~-h| 
G--------------------------16-13~--\-9~---------9-----------------------------------| 
D-----------------------------------------------------------------------------------| 
A-----------------------------------------------------------------------------------| 
E-----------------------------------------------------------------------------------| 
 
                                    Intro (Gtr.2) 
E-----------------------------------------------------------------------------------| 
B10p9-7---------------------------|-------------------------------------------------| 
G--------9-/-11~~-h13p11p9-9~~-\--|---9-----4-----6-----------9-----6-----2----4---/| 
D---------------------------------|---9-----4-----6-----6-----9-----6-----2----4---/| 
A---------------------------------|---7-----2-----4-----6-----7-----4-----0----2---/| 
E-------------------------------------------------------4---------------------------| 
 
                                                (end Intro) 
E----------------------------------------------------------||-----------------------| 
B----------------------------------------------------------||-----------------------| 
G--9-----4-----6-----------9-----6-----2-----4~------------||-----Verse-(Piano)-----| 
D--9-----4-----6-----6-----9-----6-----2-----4~----\--2~~--||-----------------------| 
A--7-----2-----4-----6-----7-----4-----0-----2~----\--2~~--||-----------------------| 
E--------------------4-----------------------------\--0~~--||-----------------------| 
 
                           Chorus 
E-----------------------------------------------------------------------------------| 
B------------------------|----------------------------------------------------------| 
G-----Bridge-(Piano)-----|----9-----4-----6-----------9-----6-----2----4---/---9----| 
D------------------------|----9-----4-----6-----6-----9-----6-----2----4---/---9----| 
A------------------------|----7-----2-----4-----6-----7-----4-----0----2---/---7----| 
E-----------------------------------------------4-----------------------------------| 
 
E-----------------------------------------------------------------------------------| 
B---------------------------------------------------------------|-------------------| 
G--4-----6-----------9-----6-----2-----4------4~-----2~---1~----|-----Interlude-----| 
D--4-----6-----6-----9-----6-----2-----4------4~-----2~---2~----|----(No-Guitar)----| 
A--2-----4-----6-----7-----4-----0-----2------2~-----2~---2~----|-------------------| 
E--------------4-------------------------------------0~---0~------------------------| 
 
  Guitar Solo (with Wah Wah) 
E----------------------------------------------/-14b(15)~-r14~-12-h14p12------------| 
B----------/12--13--15---------------------------------------------------15-\12~----| 
G-----------------------12--11-h12p11--------------------------------------------\--| 
D-------------------------------------14--12~---------------------------------------| 
A--x-\-\----------------------------------------------------------------------------| 
E--x-\-\----------------------------------------------------------------------------| 
 
E------------------------------------------------------------------------------/-15-| 
B--------15-15~-----15b(17)~-r15-15~--12-13--12-h13p12-10---------------------------| 
G-12-12----------12----------------------------------------12-14b(16)-r-14-14~------| 
D-----------------------------------------------------------------------------------| 
A-----------------------------------------------------------------------------------| 
E-----------------------------------------------------------------------------------| 
 
E-16--18-------------------------------------18-20-22b(24)~~-r22-20-h22p20--18-\-15~| 
B---------16--15-h16p15----------------18-20----------------------------------------| 
G-----------------------17--15~--17-20----------------------------------------------| 
D-----------------------------------------------------------------------------------| 
A-----------------------------------------------------------------------------------| 
E-----------------------------------------------------------------------------------| 
 
E---------18-18~-----18b(20)-r18-18~--15-15b(16)~-r15--13-h15p13--------------------| 
B--16-16----------16---------------------------------------------16-18~~--18~~-/-19-| 
G-----------------------------------------------------------------------------------| 
D-----------------------------------------------------------------------------------| 
A-----------------------------------------------------------------------------------| 
E-----------------------------------------------------------------------------------| 
 
E---------------------12h14h16/17~--p16p14-------/19~~---p17p16\14/16h17h19p17~--14h| 
B-19~~--\-12~--h14h16----------------------17p16------------------------------------| 
G-----------------------------------------------------------------------------------| 
D-----------------------------------------------------------------------------------| 
A-----------------------------------------------------------------------------------| 
E-----------------------------------------------------------------------------------| 
 
        T              T                    T                 T                 T 
E16h17h21~~-p17p16p14h19~--p17p16p14h16h17h19p17p16p14h16h17h19p17p16p14h16h17p21p17| 
B-----------------------------------------------------------------------------------| 
G-----------------------------------------------------------------------------------| 
D-----------------------------------------------------------------------------------| 
A-----------------------------------------------------------------------------------| 
E-----------------------------------------------------------------------------------| 
 
               T 
Ep16p14h16h17h19p17p16p14\12----------12h14p12--------------------------------------| 
B----------------------------16p14h16----------16p14p12----------12h14h16p14p12-----| 
G-------------------------------------------------------14p13h14----------------14p-| 
D-----------------------------------------------------------------------------------| 
A-----------------------------------------------------------------------------------| 
E-----------------------------------------------------------------------------------| 
 
E----------------------------------------------------------------12h14h16b(17)~~--r-| 
B-------------------------------------------------------12h14h16--------------------| 
Gp13p11----------11h13h14p13p11----------------11h13h14-----------------------------| 
D-------14p13h14----------------14p13p11h13h14--------------------------------------| 
A-----------------------------------------------------------------------------------| 
E-----------------------------------------------------------------------------------| 
 
        Chorus (2)                                      x4   Outro 
E-16-/-24~~~~-------(-21~~-)--------------------------------------------------------| 
B----|--------------(A.H.--)-------------------------------|------------------------| 
G----|*----9-----4-----6-----------9-----6-----2-----6----*|*----9-----4-----6------| 
D----|*----9-----4-----6-----6-----9-----6-----2-----6----*|*----9-----4-----6----6-| 
A----|-----7-----2-----4-----6-----7-----4-----0-----4-----|-----7-----2-----4----6-| 
E----------------------------4----------------------------------------------------4-| 
 
                        x2 
E--------------------------|| 
B--------------------------|| repeat 
G---9-----6-----2-----6---*|| and 
D---9-----6-----2-----6---*|| fade out 
A---7-----4-----0-----4----|| 
E--------------------------|| 
 
-------------------------------------------------------------------------------------- 
 
  Rhythm Guitar during Guitar Solo 
E-----------------------------------------------------------------------------------| 
B-----------------------------------------------------------------------------------| 
G----12-----7-----9-----------12-----9-----------7----/-8-----3-----5-----------8---| 
D----12-----7-----9-----9-----12-----9-----10----7----/-8-----3-----5-----5-----8---| 
A----10-----5-----7-----9-----10-----7-----10----5----/-6-----1-----3-----5-----6---| 
E-----------------------7-------------------8-----------------------------3---------| 
 
E------------------------------|| 
B------------------------------|| 
G---5----------------/-4~~~----|| end 
D---5-----6-----8----/-4~~~----|| 
A---3-----6-----8----/-2~~~----|| 
E---------4-----6--------------|| 
 
-------------------------------------------------------------------------------------- 
 
======================= 
=TABLATURE EXPLANATION= 
======================= 
 
A.H. = Artificial harmonic 
 
<<<< = Volume swell effect 
 
>>>> = Volume decrease effect 
 
pm..| = Palm mute 
 
h = hammer on 
 
p = pull off 
 
/ = slide up 
 
\ = slide down 
 
~ = Vibrato 
 
b() = Bend 
 
x\ = Pick slide 
 
-------- 
-------- 
---12--- = Tremolo pick 
----/--- 
----/--- 
----/--- 
 
---.--- 
--12--- = Staccato 
------- 
------- 
------- 
 
|     | 
|     | 
|*   *| = repeat from * to * 
|*   *|  
|     | 
 
LYRICS: 
**************************************************** 
 
Sun is shining 
Sky is so blue 
I'm filled with hope 
It's promising 
The course my life is taking 
Searching of my truth has brought me here 
Facing things with confidence 
That all will be ok 
 
Past is gone 
Life goes on 
Memories remain 
I break the chain of misery and pain 
 
Marching to a different drum 
Shines my liberty 
It's growing stronger every day 
I feel it in me 
Leading me to a different world 
Freedom shows the way 
It's there for you and me to find 
It's heaven on earth 
 
I'm standing here today and understand 
There is no reason to hide anymore 
So many things to see, so many things to gain 
My life is not in vain 
 
Marching to a different drum 
Shines my liberty 
It's growing stronger every day 
I feel it in me 
Leading me to a different world 
Freedom shows the way 
It's there for you and me to find 
It's heaven on earth 

		  

See also:

tabs Nightwish - Bless the child tabs HIM - Right Here In My Arms tabs Nightwish - Crimson Tide / Deep Blue Sea tabs Stratovarius - Infinity tabs HIM - It's All Tears (Unplugged) tabs Stratovarius - Distant Skies
e-chords

Other versions:

tabs Steve Vai - Liberty tabs Stratovarius - Liberty
auto scroll beats size up size down change color hide chords drawings
tab show chords e-chords YouTube Clip e-chords hide all tabs e-chords go to top tab

share