Stratovarius

Holy Solos

Stratovarius

tabs Expert expert

by  MEILOUCO

save to print version add songbook text version e-mail correct tuner
chordsukulelecavacokeyboardtabbassdrumsharmonicaflute Guitar Pro
close

there isn't a video lesson for this song

chords

Holy Solos

	  		 
                  Excerpt from "HOLY SOLOS" by Stratovarius 
   A5 
 
Eb--------------10--12--13--12--10--12--10----------------------10------ 
Bb--10--12--13------------------------------13--12--10--12--13---------- 
Gb---------------------------------------------------------------------- 
Db---------------------------------------------------------------------- 
Ab---------------------------------------------------------------------- 
Eb---------------------------------------------------------------------- 
 
 
 
Eb--12--13--12--10--12--10----------||--------------10--12--13--12------ 
Bb--------------------------13--12--||--10--12--13---------------------- 
Gb----------------------------------||---------------------------------- 
Db----------------------------------||---------------------------------- 
Ab----------------------------------||---------------------------------- 
Eb----------------------------------||---------------------------------- 
 
 
 
Eb--10--12--10---------------------------------------------||----------- 
Bb--------------13--12--10--9--10--9-----------------------||--10------- 
Gb------------------------------------10--9----------------||----------- 
Db-------------------------------------------12--10--9~~~--||----------- 
Ab---------------------------------------------------------||----------- 
Eb---------------------------------------------------------||----------- 
 
 
 
Eb----------10--12--13--12--10--12--10----------------------10--12------ 
Bb--12--13------------------------------13--12--10--12--13-------------- 
Gb---------------------------------------------------------------------- 
Db---------------------------------------------------------------------- 
Ab---------------------------------------------------------------------- 
Eb---------------------------------------------------------------------- 
 
 
 
Eb--13--12--10--12--10----------||--------------10--12--13--12--10------ 
Bb----------------------13--12--||--10--12--13-------------------------- 
Gb------------------------------||-------------------------------------- 
Db------------------------------||-------------------------------------- 
Ab------------------------------||-------------------------------------- 
Eb------------------------------||-------------------------------------- 
 
 
                                                           A5 
Eb--12--10---------------------------------------------||--------------- 
Bb----------13--12--10--9--10--9-----------------------||--10--12------- 
Gb--------------------------------10--9----------------||--------------- 
Db---------------------------------------12--10--9~~~--||--------------- 
Ab-----------------------------------------------------||--------------- 
Eb-----------------------------------------------------||--------------- 
 
 
                                           G5 
Eb------10--12--13--12--10--12--10---------------------8--10--12--10---- 
Bb--13------------------------------13--12--8--10--12------------------- 
Gb---------------------------------------------------------------------- 
Db---------------------------------------------------------------------- 
Ab---------------------------------------------------------------------- 
Eb---------------------------------------------------------------------- 
 
 
                          F5                                     E5 
Eb--8--10--8----------||------------7--8--10--8--7--8--7---------------- 
Bb------------12--10--||--6--8--10------------------------10--8--------- 
Gb--------------------||-----------------------------------------9------ 
Db--------------------||------------------------------------------------ 
Ab--------------------||------------------------------------------------ 
Eb--------------------||------------------------------------------------ 
 
 
                                           A5 
Eb-------------------------------------||--------------10--12--13------- 
Bb----------10--12--13--12--10---------||--10--12--13------------------- 
Gb--10--13----------------------13~~~--||------------------------------- 
Db-------------------------------------||------------------------------- 
Ab-------------------------------------||------------------------------- 
Eb-------------------------------------||------------------------------- 
 
 
                            G5 
Eb--12--10--12--10---------------------8--10--12--10--8--10--8---------- 
Bb------------------13--12--8--10--12---------------------------12------ 
Gb---------------------------------------------------------------------- 
Db---------------------------------------------------------------------- 
Ab---------------------------------------------------------------------- 
Eb---------------------------------------------------------------------- 
 
 
           F5                                     E5 
Eb------||------------7--8--10--8--7--8--7------------------------------ 
Bb--10--||--6--8--10------------------------10--8-------------10--12---- 
Gb------||-----------------------------------------9--10--13------------ 
Db------||-------------------------------------------------------------- 
Ab------||-------------------------------------------------------------- 
Eb------||-------------------------------------------------------------- 
 
 
                           A5 
Eb---------------------||--------------10--12--13--12--10--12--10------- 
Bb--13--12--10---------||--10--12--13----------------------------------- 
Gb--------------13~~~--||----------------------------------------------- 
Db---------------------||----------------------------------------------- 
Ab---------------------||----------------------------------------------- 
Eb---------------------||----------------------------------------------- 
 
 
                                                  A5 
Eb---------------------------------------------||----------------------- 
Bb--13--12--10--9--10--9-----------------------||----------------------- 
Gb------------------------10--9----------------||------------7--9------- 
Db-------------------------------12--10--9~~~--||--7--9--10------------- 
Ab---------------------------------------------||----------------------- 
Eb---------------------------------------------||----------------------- 
 
 
                                                             A5 
Eb--------------------------------------------------------||------------ 
Bb--------------------------------------------------------||------------ 
Gb--10--9--7--9--7----------------------------------------||------------ 
Db------------------10--9--7--6--7--6---------------------||-----2------ 
Ab-------------------------------------8--7---------------||--0--------- 
Eb-------------------------------------------10--8--7~~~--||------------ 
 
 
          E5         C5           G5              C5          D5 
Eb---------------------------------------------||----------------------- 
Bb-----0h1p0-------------------3h5p3-----------||----------------------- 
Gb--2---------1-------------5---------4--------||----------------------- 
Db---------------2p0-----5---------------5--3--||--2-----5--2--3-------- 
Ab--------------------3------------------------||-----3-----------5----- 
Eb---------------------------------------------||----------------------- 
 
 
         E5           A5             A5           E5         C5 
Eb--------------------------------||------------------------------------ 
Bb--------------------------------||-----------0h1p0-------------------- 
Gb--------------------------------||--------2---------1----------------- 
Db--7--3--6-----9--6--7h9p7p6--7--||-----2---------------2p0-----5------ 
Ab-----------7--------------------||--0-----------------------3--------- 
Eb--------------------------------||------------------------------------ 
 
 
          G5              C5          D5          E5           A5 
Eb---------------------||----------------------------------------------- 
Bb-----3h5p3-----------||----------------------------------------------- 
Gb--5---------4--------||----------------------------------------------- 
Db---------------5--3--||--2-----5--2--3-----7--3--6-----9--6--7h9------ 
Ab---------------------||-----3-----------5-----------7----------------- 
Eb---------------------||----------------------------------------------- 
 
 
                A5           E5         C5           G5 
Eb-----------||---------------------------------------------------||---- 
Bb-----------||-----------0h1p0-------------------3h5p3-----------||---- 
Gb-----------||--------2---------1-------------5---------4--------||---- 
Db--p7p6--7--||-----2---------------2p0-----5---------------5--3--||---- 
Ab-----------||--0-----------------------3------------------------||---- 
Eb-----------||---------------------------------------------------||---- 
 
 
   C5          D5          E5           A5              A5 
Eb--------------------------------------------------||------------------ 
Bb--------------------------------------------------||-----------0------ 
Gb--------------------------------------------------||--------2--------- 
Db--2-----5--2--3-----7--3--6-----9--6--7h9p7p6--7--||-----2------------ 
Ab-----3-----------5-----------7--------------------||--0--------------- 
Eb--------------------------------------------------||------------------ 
 
 
      E5         C5           G5               C5          D5 
Eb-----------------------------------------||--------------------------- 
Bb--h1p0-------------------3h5p3-----------||--------------------------- 
Gb--------1-------------5---------4--------||--------------------------- 
Db-----------2p0-----5---------------5--3--||--2-----5--2--3-----7------ 
Ab----------------3------------------------||-----3-----------5--------- 
Eb-----------------------------------------||--------------------------- 
 
 
      E5 
Eb--------------------------------- 
Bb------------------------------9-- 
Gb-----------------7-----10--7----- 
Db--3--6-----9--6-----9------------ 
Ab--------7------------------------ 
Eb--------------------------------- 
 
 
Okay...It doesn't go like this, but it sounds better A5 
Eb-------------10------13--10---/22--------------||----------17--15----- 
Bb------12--9------12----------------------------||------14------------- 
Gb--10----------------------------------2--2-----||--14----------------- 
Db--------------------------------------2--2-----||--------------------- 
Ab--------------------------------------0--0~~~--||--------------------- 
Eb-----------------------------------------------||--------------------- 
 
 
                    G5                                  F5 
Eb--13----------------------15--13--12--------------||----------13------ 
Bb------17--15--13------12--------------15--13--12--||------10---------- 
Gb------------------12------------------------------||--10-------------- 
Db--------------------------------------------------||------------------ 
Ab--------------------------------------------------||------------------ 
Eb--------------------------------------------------||------------------ 
 
 
                        E5                              A5 
Eb--12--10--------------------12--10--8-------------||----------17------ 
Bb----------13--12--10-----9-------------12--10~~~--||------14---------- 
Gb----------------------9---------------------------||--14-------------- 
Db--------------------------------------------------||------------------ 
Ab--------------------------------------------------||------------------ 
Eb--------------------------------------------------||------------------ 
 
 
                        G5                                  F5 
Eb--15--13----------------------15--13--12--------------||-------------- 
Bb----------17--15--13------12--------------15--13--12--||------10------ 
Gb----------------------12------------------------------||--10---------- 
Db------------------------------------------------------||-------------- 
Ab------------------------------------------------------||-------------- 
Eb------------------------------------------------------||-------------- 
 
 
                            E5 
Eb--13--12--10--------------------12--10--8-------------||-------------- 
Bb--------------13--12--10-----9-------------12--10~~~--||--10h11h13---- 
Gb--------------------------9---------------------------||-------------- 
Db------------------------------------------------------||-------------- 
Ab------------------------------------------------------||-------------- 
Eb------------------------------------------------------||-------------- 
 
 
 
Eb------------------------------------------------8h10h12--10h12h13----- 
Bb---------------------------------------9h10h12------------------------ 
Gb--7h9h10-----------------------7h9h10--------------------------------- 
Db----------6h7h9---------6h7h9----------------------------------------- 
Ab-----------------5h7h8------------------------------------------------ 
Eb---------------------------------------------------------------------- 
 
 
                                           A5 
Eb--p10--||--12---/16---/19--20^--(20)--19------------------------------ 
Bb-------||------------------------------------------------------------- 
Gb-------||---------------------------------2--------------------------- 
Db-------||---------------------------------2--------------------------- 
Ab-------||---------------------------------0~~~------------------------ 
Eb-------||------------------------------------------------------------- 
 
 
Jцrg takes it from here. 
Eb-----------~~~--||---------------------------------------------------- 
Bb--------~~~-----||---------------------------------------------------- 
Gb-----~~~--------||---------------------------------------------------- 
Db--~~~-----------||---------------------------------------------------- 
Ab----------------||---------------------------------------------------- 
Eb----------------||---------------------------------------------------- 
 

		  

Full key step upFull key step up
Half key step upHalf key step up
Half key step downHalf key step down
Full key step downFull key step down
hide glossary

See also:

tabs Stratovarius - Dreamspace tabs Nightwish - Ghost Love Score tabs Nightwish - Elvenpath tabs HIM - Sweet Pandemonium tabs Stratovarius - Hold On to Your Dream tabs Nightwish - LAPPI 1: ERÄMAAJÄRVI
e-chords

Other versions:

tabs Stratovarius - Holy Solos
auto scroll beats size up size down change color hide chords drawings
tab show chords e-chords YouTube Clip e-chords hide all tabs e-chords go to top tab

share