Stratovarius

Dreamweaver

Stratovarius

tabs Easy easy

by  GUIGRAZ

save to print version add songbook text version e-mail correct tuner
chordsukulelecavacokeyboardtabbassdrumsharmonicaflute Guitar Pro
close

there isn't a video lesson for this song

chords

Dreamweaver

	  		STRATOVARIUS - DREAMWEAVER (From the album: ELEMENTS PT. 2) * 
*************************************************************** 
 Music and words by: Timo Tolkki 
 
Transcribed by: Niclas Buss 
Day tabbed: 19.12.2003 
Homepage: http://www.metalprovider.com/thedarktower/enter.htm 
          http://www.northernflame.tk 
Email: [email protected] 
 
Please mail me if you can find mistakes! 
 
----------------------------------------- 
 
 Tune Down 1/2 Step!  
 
  Intro 
E--------10-----10-----8---------------------8-----8----------------------------10--| 
B------8------8------8-----8-11---8-10~----8-----8-----8-11---8-10---8-10~----8-----| 
G----7------7------7-----7------7--------8-----8-----8------8------8--------7------7| 
D-----------------------------------------------------------------------------------| 
A-----------------------------------------------------------------------------------| 
E-----------------------------------------------------------------------------------| 
 
                                                               Gtr.2: 
                                                                G5~ 
E---10-----8---------------------10-----10-----13-----11-----8~------10-----10-----8| 
B-8------8-----8-11---8-10~----8------8------8------8------8-------8------8------8--| 
G------7-----7------7--------8------8------8------8------8------\7------7------7----| 
D-----------------------------------------------------------------------------------| 
A-----------------------------------------------------------------------------------| 
E-----------------------------------------------------------------------------------| 
 
E---------------------8-----8----------------------------10-----10-----8------------| 
B---8-11---8-10~----8-----8-----8-11---8-10---8-10~----8------8------8-----8-11---8-| 
G-7------7--------8-----8-----8------8------8--------7------7------7-----7------7---| 
D-----------------------------------------------------------------------------------| 
A-----------------------------------------------------------------------------------| 
E-----------------------------------------------------------------------------------| 
 
E-----------------------------------------------------------------------------------| 
B-10~-------------------------------------------11-13-15\16-15-13\11-15-13-11----13-| 
G--------------------------------------10-12-14-------------------------------14----| 
D-----------------------------10-12-13----------------------------------------------| 
A--------------------10-12-13-------------------------------------------------------| 
E-----\--11-10-11-13----------------------------------------------------------------| 
 
                         Riff 1 
E-----------------------------10-----10-----8---------------------8-----8-----------| 
B11-------11-----------|----8------8------8-----8-11---8-10~----8-----8-----8-11---8| 
G---14-12----14-12-11~-|*-7------7------7-----7------7--------8-----8-----8------8--| 
D----------------------|*-----------------------------------------------------------| 
A----------------------|------------------------------------------------------------| 
E-----------------------------------------------------------------------------------| 
 
                                                                                 x2 
E-----------------10-----10-----8---------------------10-----10-----13----11-----8~-| 
B-10---8-10~----8------8------8-----8-11---8-10~----8------8------8-----8------8----| 
G----8--------7------7------7-----7------7--------8------8------8-----8------8-----*| 
D----------------------------------------------------------------------------------*| 
A-----------------------------------------------------------------------------------| 
E-----------------------------------------------------------------------------------| 
 
  (end Intro)    Verse (with clean sound) 
E-10~~--\-------||---------3-----------3------------3------------3-------------3----| 
B---------\-----||-------3---3~------4---4~-------3---3~-------3---3~~-------3---3~-| 
G---------------||*----0-----------0------------5------------0-------------0--------| 
D-(end-Riff-1)--||*--5-----------5------------5------------5-------------5----------| 
A---------------||------------------------------------------------------------------| 
E---------------||------------------------------------------------------------------| 
                             __________________ __________________ 
                            |1.                |2.                |  Chorus 
E--------3------------3-----|---------3--------|------------------||----------------| 
B------4---4~-------3---3~--|-------3---3~~----|--Dist.Gtr--------||----------------| 
G----0------------5---------|-----0-----------*|---8------10~-----||----------------| 
D--5------------5-----------|---5-------------*|---8------10~-----||-------5~----5--| 
A---------------------------|------------------|---6-------8~-----||-------5~----5--| 
E---------------------------|------------------|---<<<<<-fade-in--||---3-3-3~----3--| 
                                                                      pm..| 
 
E-----------------------------------------------------------------------------------| 
B-----------------------------------------------------------------------------------| 
G------------------------------------8~-----8----8\--------5~---5----5\-------------| 
D---5\---------5~---5----5\----------8~-----8----8\--------5~---5----5\---------5~--| 
A---5\---------5~---5----5\----6-6-6-6~---6-6--6-6\----3-3-3~---3--3-3\---------5~--| 
E-3-3\---3-3-3-3~---3--3-3\-----------------------------------------------\-3-3-3~--| 
 pm     pm....|       pm      pm....|    pm   pm      pm..|       pm       pm..| 
 
E-----------------------------------------------------------------------------------| 
B--------------------------------------------------------------|------------|-------| 
G---------------------------------------8~---8----8\-----5~~---|---Riff-1---|---Vers| 
D-5----5\---------5~---5----5\----------8~---8----8\-----5~~---|------------|-------| 
A-5----5\---------5~---5----5\----6-6-6-6~---6--6-6\---3-3~~---|------------|-------| 
E-3--3-3\---3-3-3-3~---3--3-3\------------------------------------------------------| 
    pm     pm....|       pm      pm....|       pm     pm 
 
         Chorus (2) 
E-----------------------------------------------------------------------------------| 
B------|----------------------------------------------------------------------------| 
Ge-2---|--------------------------------------------------8~----8----8\-------5~---5| 
D------|------5~----5----5\---------5~---5----5\----------8~----8----8\-------5~---5| 
A------|------5~----5----5\---------5~---5----5\----6-6-6-6~----6--6-6\---3-3-3~---3| 
E---------3-3-3~----3--3-3\---3-3-3-3~---3--3-3\------------------------------------| 
         pm..|        pm     pm....|               pm....|        pm     pm..| 
 
E-----------------------------------------------------------------------------------| 
B-----------------------------------------------------------------------------------| 
G----5\----------------------------------------------------8~---8----8\---------5~~-| 
D----5\----------5~---5----5\---------5~---5----5\---------8~---8----8\---------5~~-| 
A--3-3\----------5~---5----5\---------5~---5----5\---6-6-6-6~---6--6-6\---3-3-3-3~~-| 
E---------\3-3-3-3~---3--3-3\---3-3-3-3~---3--3-3\----------------------------------| 
  pm     pm.....|       pm     pm....|              pm....|       pm     pm....| 
 
               Guitar Solo 
E-----------------------------------------------.--.-----.--.-----------------------| 
B------------|----/15~--/--\-18b(20)~-r18-18~--16-15--.-15-16-15b(16)~-r15~--13~----| 
G---Riff-1---|--/------------------------------------17--------------------------15-| 
D------------|----------------------------------------------------------------------| 
A------------|----------------------------------------------------------------------| 
E-----------------------------------------------------------------------------------| 
 
E-----------------------------------------------------------------------------------| 
B-----------------------------------------------------------------------------------| 
G-14~--15-12~-----------------------------------------------------------------------| 
D--------------15-13~-\10-12~-\8-10~-8-7---------7-8-10-8-7------/12-10-8-------/13-| 
A----------------------------------------10-8-10------------10-8----------12-10-----| 
E-----------------------------------------------------------------------------------| 
 
E-----------------------------------------------------------------------------------| 
B-----------------------------------------------------------------------------------| 
G-----------------------------------------------------------------------------------| 
D-12-10----12-10-8-------12-10-8-------/13-12-10-------12-10-8-------/13-12-10------| 
A-------13---------12-10---------12-10-----------13-12---------12-10-----------13-12| 
E-----------------------------------------------------------------------------------| 
 
E--------------------------------------15-13~---------------------------------------| 
B---------11-----------------------------------15-16~-15-13-11-------13-11-------/13| 
G-12/14~-----12b(14)~-r12-12~--14-15~--------------------------14-12-------14-12----| 
D-----------------------------------------------------------------------------------| 
A-----------------------------------------------------------------------------------| 
E-----------------------------------------------------------------------------------| 
 
E-------------------------------15~~-/17~--17b(18)-r17-15----------15-17-18-17-15---| 
Bb(15)~--(15)-(15)~--r13-11-/15---------------------------16-15-16----------------16| 
G-----------------------------------------------------------------------------------| 
D-----------------------------------------------------------------------------------| 
A-----------------------------------------------------------------------------------| 
E-----------------------------------------------------------------------------------| 
 
E-------15-17-15----------15-17b(18)~--r17-17~~---18p17-15--.--.--------------------| 
B-15-16----------16-15-16--------------------------------.-18-16-18p16p15h16p15-----| 
G-------------------------------------------------------------------------------\14h| 
D-----------------------------------------------------------------------------------| 
A-----------------------------------------------------------------------------------| 
E-----------------------------------------------------------------------------------| 
 
E-----------------------------------------------------------------------------------| 
B------15h16h18p16p15h16p15---------------------------------------------------------| 
G15h17----------------------17p15p14----------\7h8h10p8p7---------------------------| 
D------------------------------------17p15p13-------------10p8p7--------------------| 
A----------------------------------------------------------------10p8p6-\5h6h8p6p5--| 
E----------------------------------------------------------------------------------6| 
 
E------------------------------------------------------------------------10--13--10-| 
B---------------------------------11-A.H.-------11-------------------11-------------| 
G---------------------------8-12-----12~---8h12----10b(12)~------12-----------------| 
D------5b(7)-r5-5~~---/-10~----------------------------------10---------------------| 
A-----------------------------------------------------------------------------------| 
Ep5p3-------------------------------------------------------------------------------| 
 
E---------------18p15h18p15-------17p15h17p15-------18p15h18p15-------20p15h20p15---| 
B--11-----------------------18p15-------------18p15-------------18p15-------------18| 
G------10~--\-----------------------------------------------------------------------| 
D-----------------------------------------------------------------------------------| 
A-----------------------------------------------------------------------------------| 
E-----------------------------------------------------------------------------------| 
 
E-----18p15-------17p15-------18p15-------20p15-------18p15-------17p15-------18p15-| 
B-p15-------18p15-------18p15-------18p15-------18p15-------18p15-------18p15-------| 
G-----------------------------------------------------------------------------------| 
D-----------------------------------------------------------------------------------| 
A-----------------------------------------------------------------------------------| 
E-----------------------------------------------------------------------------------| 
 
                                                                         Chorus (3) 
E-------------------------------------------------------------T.bar-----------------| 
B-18p15h18p15-------18p15-------------------------------/18b(20)~~~~~--|------------| 
G-------------17p15-------17p15h17p15-------17p15-------------vibrato--|*-----------| 
D-------------------------------------17p15-------17p15----------------|*------5~---| 
A----------------------------------------------------------------------|-------5~---| 
E--------------------------------------------------------------------------3-3-3~---| 
                                                                          pm..| 
 
E------------------------------------------------------------------------------|| 
B------------------------------------------------------------------------------|| repeat 
G--------------------------------------8~---8----8\---------5~---5----5\------*|| and 
D-5----5\---------5~---5----5\---------8~---8----8\---------5~---5----5\------*|| fade 
A-5----5\---------5~---5----5\---6-6-6-6~---6--6-6\---6\3-3-3~---3--3-3\---3---|| out 
E-3--3-3\---3-3-3-3~---3--3-3\-------------------------------------------------|| 
    pm     pm....|       pm     pm....|       pm     pm....|       pm     pm 
 
-------------------------------------------------------------------------------------- 
                                                ____________________________________ 
  Rhythm Guitar during Guitar Solo             |1.2.3. 
E----------------------------------------------|------------------------------------| 
B----------------------------------------------|------------------------------------| 
G*------5~----------5\---------5~---------5\---|------------------------------------| 
D*------5~----------5\---------5~---------5\---|-------5~---------5\----------5~----| 
A---3-3-3~----3-3-3-3\---3-3-3-3~---3-3-3-3\---|-------5~---------5\----------5~----| 
E----------------------------------------------|-3-3-3-3~---3-3-3-3\----3-3-3-3~---3| 
   pm..|     pm....|    pm....|    pm....|      pm....|    pm....|     pm....|    pm 
 _____________ ______________________________________________ 
              |4.                                            | 
E-------------|----------------------------------------------|| 
B-------------|----------------------------------------------|| 
G------------*|--------8~---------8\---------8~~-------------|| end 
D-----5\-----*|--------8~---------8\---------8~~---\--3~-----|| 
A-----5\---3--|--/-6-6-6~---6-6-6-6\---6-6-6-6~~---\--3~-----|| 
E-3-3-3\------|------------------------------------\--1~-----|| 
 ....|    pm      pm..|    pm....|    pm....| 
 
-------------------------------------------------------------------------------------- 
 
======================= 
=TABLATURE EXPLANATION= 
======================= 
 
A.H. = Artificial harmonic 
 
<<<< = Volume swell effect 
 
>>>> = Volume decrease effect 
 
pm..| = Palm mute 
 
h = hammer on 
 
p = pull off 
 
/ = slide up 
 
\ = slide down 
 
~ = Vibrato 
 
b() = Bend 
 
x\ = Pick slide 
 
-------- 
-------- 
---12--- = Tremolo pick 
----/--- 
----/--- 
----/--- 
 
---.--- 
--12--- = Staccato 
------- 
------- 
------- 
 
|     | 
|     | 
|*   *| = repeat from * to * 
|*   *|  
|     | 
 
LYRICS: 
****************************************************************** 
 
Lying alone in your bed 
Images from the past filling your head 
You try run, you try to hide 
But there is no escape, your eys are open wide 
Long time ago you felt alive 
Now only emptiness is blackening your life 
The time has come to break away 
Or you go astray 
 
Dreamweaver - there is so much more to see 
Dreamweaver - there is a deeper way to feel 
Dreamweaver - misery takes a hold of you, paralyzes your soul 
Dreamweaver - find a way to understand 
Dreamweaver - you hold your fate in your own hand 
Dreamweaver - break your chains and make your move 
Or you might just see a dreamweaver's fall 
 
Thing that you started 
Are still undone 
While you are wasting your precious life 
The sleepless nights 
Won't leave you be 
You're going astray 
 
Dreamweaver - there is so much more to see 
Dreamweaver - there is a deeper way to feel 
Dreamweaver - misery takes a hold of you, paralyzes your soul 
Dreamweaver - find a way to understand 
Dreamweaver - you hold your fate in your own hand 
Dreamweaver - break your chains and make your move 
Or you might just see a dreamweaver's fall 
 
Dreamweaver - there is so much more to see 
Dreamweaver - there is a deeper way to feel 
Dreamweaver - misery takes a hold of you, paralyzes your soul 
Dreamweaver - find a way to understand 
Dreamweaver - you hold your fate in your own hand 
Dreamweaver - break your chains and make your move 
Or you might just see a dreamweaver's fall 
 
Dreamweaver - there is so much more to see 
Dreamweaver - there is a deeper way to feel 
Dreamweaver - misery takes a hold of you, paralyzes your soul 
Dreamweaver - find a way to understand 
Dreamweaver - you hold your fate in your own hand 
Dreamweaver - break your chains and make your move 
Or you might just see a dreamweaver's fall 

		  

See also:

tabs Nightwish - Bless the child tabs HIM - Right Here In My Arms tabs Nightwish - Crimson Tide / Deep Blue Sea tabs Stratovarius - Infinity tabs HIM - It's All Tears (Unplugged) tabs Stratovarius - Distant Skies
e-chords

Other versions:

tabs Stratovarius - Dreamweaver
auto scroll beats size up size down change color hide chords drawings
tab show chords e-chords YouTube Clip e-chords hide all tabs e-chords go to top tab

share