Stratovarius

Atlantis

Stratovarius

tabs

save to print version add songbook text version e-mail correct tuner
chordsukulelecavacokeyboardtabbassdrumsharmonicaflute Guitar Pro
close

there isn't a video lesson for this song

chords

Atlantis

	  		 
e|----0----2---3-----10---9---7---3---5---0--------- 
B|-------------------------------------------------- 
G|--0----0----0----0----0---0----0---0---0---------- 
D|-------------------------------------------------- 
A|-------------------------------------------------- 
E|-0----0----0----0----0---0----0---0---0----------- 
FAÇA ISSO 2 VEZES, FAÇA UMA VEZ, PARE, DEPOIS FAÇA DINOVO, SE QUISER 
PUXE A MUSICA E ESCUTE FAZENDO 
 
e|----0----2---3-----10---9---7---3---5---0--------- 
B|-------------------------------------------------- 
G|--0----0----0----0----0---0----0---0---0---------- 
D|-------------------------------------------------- 
A|-------------------------------------------------- 
E|-0----0----0----0----0---0----0---0---0----------- 
AGORA FAÇA ISSO 2 VEZES SEM PARAR 
 
e|-------------------------------------------------- 
B|---0----2----3----5----3----2----0---------------- 
G|-------------------------------------(2)---------- 
D|--0----0----0----0----0----0----0----------------- 
A|-------------------------------------------------- 
E|-0----0----0----0----0----0----0------------------ 
FAÇA ISSO 2 VEZES, MAS NA PRIMEIRA VEZ, FAÇA O 
QUE ESTÁ ENTRE PARENTESES, NA SEGUNDA VEZ NAO<= ISSO 
 FAZ 2 VEZES 
 
e|---0----2----3----5----3----2----0---------------- 
B|------------------------------------(3)----------- 
G|--0----0----0----0----0----0----0----------------- 
D|-------------------------------------------------- 
A|-------------------------------------------------- 
E|-0----0----0----0----0----0----0------------------ 
AQUI FAÇA A MESMA COISA QUE O DE CIMA, SO 
           QUE NESTAS CORDAS 
 
e|---7----2----7----2----6----2----6----2----------- 
B|-------------------------------------------------- 
G|--0----0----0----0----0----0----0----0------------ 
D|-------------------------------------------------- 
A|-------------------------------------------------- 
E|-0----0----0----0----0----0----0----0------------- 
 
e|---7----2----7----2----6----2----6---------------- 
B|-------------------------------------------------- 
G|--0----0----0----0----0----0----0----------------- 
D|-------------------------------------------------- 
A|-------------------------------------------------- 
E|-0----0----0----0----0----0----0------------------ 
 
e|---10---5----10---5----9----5----9----5----------- 
B|-------------------------------------------------- 
G|--0----0----0----0----0----0----0----0------------ 
D|-------------------------------------------------- 
A|-------------------------------------------------- 
E|-0----0----0----0----0----0----0----0------------- 
 
e|---12---7----12---7----11---7----11----7---------- 
B|-------------------------------------------------- 
G|--0----0----0----0----0----0----0----0------------ 
D|-------------------------------------------------- 
A|-------------------------------------------------- 
E|-0----0----0----0----0----0----0----0------------- 
 
e|---12---7----12---7----11---7----11--------------- 
B|-------------------------------------------------- 
G|--0----0----0----0----0----0----0----------------- 
D|-------------------------------------------------- 
A|-------------------------------------------------- 
E|-0----0----0----0----0----0----0------------------ 
 
e|----0----2---3-----10---9---7---3---5---0--------- 
B|-------------------------------------------------- 
G|--0----0----0----0----0---0----0---0---0---------- 
D|-------------------------------------------------- 
A|-------------------------------------------------- 
E|-0----0----0----0----0---0----0---0---0----------- 
 
e|-----0-------------------------------------------- 
B|---------0---------------------------------------- 
G|-------------0------------------------------------ 
D|-----------------0-------------------------------- 
A|-------------------------------------------------- 
E|-----------------------0-------------------------- 
 
e|----0----2---3-----10---9---7---3---5---0--------- 
B|-------------------------------------------------- 
G|--0----0----0----0----0---0----0---0---0---------- 
D|----------------------------------------------2--- 
A|-------------------------------------------------- 
E|-0----0----0----0----0---0----0---0---0----------- 
 
 
_______________________________________________________ 
Contribuição: Ricardo de Souza Buzzo([email protected]) 

		  

See also:

tabs HIM - In Joy And Sorrow tabs Nightwish - Feel for You tabs Stratovarius - Destiny tabs Nightwish - Wish I Had An Angel tabs HIM - Wicked Game tabs HIM - Rip out the wings of the buterflay - intro
e-chords

Other versions:

tabs Stratovarius - Atlantis tabs Seafret - Atlantis
auto scroll beats size up size down change color hide chords drawings
tab show chords e-chords YouTube Clip e-chords hide all tabs e-chords go to top tab

share