Stratovarius

_Stratosphere_

Stratovarius

tabs Advanced advanced

by  DARKMISTERIO

save to print version add songbook text version e-mail correct tuner
chordsukulelecavacokeyboardtabbassdrumsharmonicaflute Guitar Pro
close

there isn't a video lesson for this song

chords

_Stratosphere_

	  		Soy peruano y para todos los putos novatos en guitarra les mando esta canción Stratosphere  
una de las mejores de stratovarius. He estado revisando las demas canciones y en verdad son pura basura,  
no merecen ser vistas por nadie. son pura caca. intenten tocarlas y veran q son pura basura, los sonidos  
dan asco. Ahora intenten con mis canciones byebye. 
Gente de lima, Peru si quiere mas canciones en especial de metal y punk agregenme a mi correo y con mucho 
gusto atendere todos sus pedidos. Me llamo pepe 
[email protected] 
mas bien disculpen por no poner bien las vibraciones y las demas cosas lo q pasa esq esta pagina no soporta 
estas cosas no se xq pero por mail si se las puedo pasar. 
 
Stratosphere                                    
                                                                   Stratovarius 
Guitar 1 
 
 
       S S S S S S S S S S S S S S S S     S S S S S S S S S S S S S S S S   
D#||--12-0-0-0-8-0-0-0-7-0-0-0-5-0-0-0-|--12-0-0-0-8-0-0-0-7-0-0-0-5-0-0-0-| 
A#||-----------------------------------|-----------------------------------| 
F#||-----------------------------------|-----------------------------------| 
C#||-----------------------------------|-----------------------------------| 
G#||-----------------------------------|-----------------------------------| 
D#||-----------------------------------|-----------------------------------| 
 
 
   S S S S S S S S S S S S S S S S     S S S S S S S S S S S S S S S S   
--12-0-0-0-8-0-0-0-7-0-0-0-5-0-0-0-|--12-0-0-0-8-0-0-0-7-0-0-0-5-0-0-0-| 
-----------------------------------|-----------------------------------| 
-----------------------------------|-----------------------------------| 
-----------------------------------|-----------------------------------| 
-----------------------------------|-----------------------------------| 
-----------------------------------|-----------------------------------| 
 
 
   S S S S S S S S S S S S S S S S   
--12-0-0-0-8-0-0-0-7-0-0-0-5-0-0-0-| 
-----------------------------------| 
-----------------------------------| 
-----------------------------------| 
-----------------------------------| 
-----------------------------------| 
 
 
   S  S  S  S  S  S  S  S  S  S  S  S  S  S  S  S   
--12-13-12-10----------------------10-12-13-12-10-| 
--------------13-12-10----10-12-13----------------| 
-----------------------13-------------------------| 
--------------------------------------------------| 
--------------------------------------------------| 
--------------------------------------------------| 
 
 
   S S S S  S S S S S S S S S S S S   
--12-0-0-0-10-0-0-0-7-0-0-0-4-0-0-0-| 
------------------------------------| 
------------------------------------| 
------------------------------------| 
------------------------------------| 
------------------------------------| 
 
 
   S  S  S  S  S  S  S  S  S  S  S  S  S  S  S  S   
--12-13-12-10----------------------10-12-13-12-10-| 
--------------13-12-10----10-12-13----------------| 
-----------------------13-------------------------| 
--------------------------------------------------| 
--------------------------------------------------| 
--------------------------------------------------| 
 
 
   S S S S S S S S S S S S S S S S   
--12-0-0-0-8-0-0-0-7-0-0-0-5-0-0-0-| 
-----------------------------------| 
-----------------------------------| 
-----------------------------------| 
-----------------------------------| 
-----------------------------------| 
 
 
   S  S  S  S  S  S  S  S  S  S  S  S  S  S  S  S   
--12-13-12-10----------------------10-12-13-12-10-| 
--------------13-12-10----10-12-13----------------| 
-----------------------13-------------------------| 
--------------------------------------------------| 
--------------------------------------------------| 
--------------------------------------------------| 
 
 
   S S S S  S S S S S S S S S S S S   
--12-0-0-0-10-0-0-0-7-0-0-0-4-0-0-0-| 
------------------------------------| 
------------------------------------| 
------------------------------------| 
------------------------------------| 
------------------------------------| 
 
 
   S  S  S  S  S  S  S  S  S  S  S  S  S  S  S  S   
--12-13-12-10----------------------10-12-13-12-10-| 
--------------13-12-10----10-12-13----------------| 
-----------------------13-------------------------| 
--------------------------------------------------| 
--------------------------------------------------| 
--------------------------------------------------| 
 
 
   S S S S S S S S S S S S S S S S   
--12-0-0-0-8-0-0-0-7-0-0-0-5-0-0-0-| 
-----------------------------------| 
-----------------------------------| 
-----------------------------------| 
-----------------------------------| 
-----------------------------------| 
 
 
   S  S  S  S  S  S  S  S  S  S  S  S  S  S  S  S   
--12-13-12-10----------------------10-12-13-12-10-| 
--------------13-12-10----10-12-13----------------| 
-----------------------13-------------------------| 
--------------------------------------------------| 
--------------------------------------------------| 
--------------------------------------------------| 
 
 
   S S S S  S S S S S S S S S S S S   
--12-0-0-0-10-0-0-0-7-0-0-0-4-0-0-0-| 
------------------------------------| 
------------------------------------| 
------------------------------------| 
------------------------------------| 
------------------------------------| 
 
 
   S  S  S  S  S  S  S  S  S  S  S  S  S  S  S  S   
--12-13-12-10----------------------10-12-13-12-10-| 
--------------13-12-10----10-12-13----------------| 
-----------------------13-------------------------| 
--------------------------------------------------| 
--------------------------------------------------| 
--------------------------------------------------| 
 
 
   S S S S S S S S S S S S S S S S   
--12-0-0-0-8-0-0-0-7-0-0-0-5-0-0-0-| 
-----------------------------------| 
-----------------------------------| 
-----------------------------------| 
-----------------------------------| 
-----------------------------------| 
 
 
   S  S  S  S  S  S  S  S  S  S  S  S  S  S  S  S   
--12-13-12-10----------------------10-12-13-12-10-| 
--------------13-12-10----10-12-13----------------| 
-----------------------13-------------------------| 
--------------------------------------------------| 
--------------------------------------------------| 
--------------------------------------------------| 
 
 
   S S S S  S S S S S S S S S S S S   
--12-0-0-0-10-0-0-0-7-0-0-0-4-0-0-0-| 
------------------------------------| 
------------------------------------| 
------------------------------------| 
------------------------------------| 
------------------------------------| 
 
 
   S  S  S  S  S  S  S  S  S  S  S  S  S  S  S  S   
--12-13-12-10----------------------10-12-13-12-10-| 
--------------13-12-10----10-12-13----------------| 
-----------------------13-------------------------| 
--------------------------------------------------| 
--------------------------------------------------| 
--------------------------------------------------| 
 
 
   S S  S S  S S  S S  S S  S S  S S  E    
--12-9----9-12-9-13-9-12-9----9-12-9-----| 
-------10------------------10--------10--| 
-----------------------------------------| 
-----------------------------------------| 
-----------------------------------------| 
-----------------------------------------| 
 
 
   S  S  S  S  S  S  S  S  S  S  S  S  S  S  E    
--17-13----13-17-13-18-13-17-13----13-17-13-----| 
--------15----------------------15----------15--| 
------------------------------------------------| 
------------------------------------------------| 
------------------------------------------------| 
------------------------------------------------| 
 
 
   S S S S  S S  S S  S S S S  S S E    
--10-7---7-10-7-12-7-10-7---7-10-7----| 
-------8------------------8--------8--| 
--------------------------------------| 
--------------------------------------| 
--------------------------------------| 
--------------------------------------| 
 
 
   S  S  S  S  S  S  S  S  S  S  S  S  S  S  E    
--15-12----12-15-12-17-12-15-12----12-15-12-----| 
--------13----------------------13----------13--| 
------------------------------------------------| 
------------------------------------------------| 
------------------------------------------------| 
------------------------------------------------| 
 
 
  S S S S S S  S S S S S S S S E    
--8-5---5-8-5-10-5-8-5---5-8-5----| 
------6----------------6-------6--| 
----------------------------------| 
----------------------------------| 
----------------------------------| 
----------------------------------| 
 
 
   S  S  S  S  S  S  S  S  S  S  S  S  S  S  E    
--14-11----11-14-11-15-11-14-11----11-14-11-----| 
--------12----------------------12----------12--| 
------------------------------------------------| 
------------------------------------------------| 
------------------------------------------------| 
------------------------------------------------| 
 
 
   S  S  S  S  S  S  S  S  S  S  S  S  S  S  S  S   
--19-16----16-19-16-20-16-19-16----16-19-16----16-| 
--------17----------------------17----------17----| 
--------------------------------------------------| 
--------------------------------------------------| 
--------------------------------------------------| 
--------------------------------------------------| 
 
 
   S  S  S  S  S  S  S  S  S  S  S  S  S E.    
--19-16----16-19-16-20-16-19-------16-19-----| 
--------17----------------------17-----------| 
-----------------------------19--------------| 
---------------------------------------------| 
---------------------------------------------| 
---------------------------------------------| 
 
 
   S S  S S  S S  S S  S S  S S  S S  E    
--12-9----9-12-9-13-9-12-9----9-12-9-----| 
-------10------------------10--------10--| 
-----------------------------------------| 
-----------------------------------------| 
-----------------------------------------| 
-----------------------------------------| 
 
 
   S  S  S  S  S  S  S  S  S  S  S  S  S  S  E    
--17-13----13-17-13-18-13-17-13----13-17-13-----| 
--------15----------------------15----------15--| 
------------------------------------------------| 
------------------------------------------------| 
------------------------------------------------| 
------------------------------------------------| 
 
 
   S S S S  S S  S S  S S S S  S S E    
--10-7---7-10-7-12-7-10-7---7-10-7----| 
-------8------------------8--------8--| 
--------------------------------------| 
--------------------------------------| 
--------------------------------------| 
--------------------------------------| 
 
 
   S  S  S  S  S  S  S  S  S  S  S  S  S  S  E    
--15-12----12-15-12-17-12-15-12----12-15-12-----| 
--------13----------------------13----------13--| 
------------------------------------------------| 
------------------------------------------------| 
------------------------------------------------| 
------------------------------------------------| 
 
 
  S S S S S S  S S S S S S S S E    
--8-5---5-8-5-10-5-8-5---5-8-5----| 
------6----------------6-------6--| 
----------------------------------| 
----------------------------------| 
----------------------------------| 
----------------------------------| 
 
 
   S  S  S  S  S  S  S  S  S  S  S  S  S  S  E    
--14-11----11-14-11-15-11-14-11----11-14-11-----| 
--------12----------------------12----------12--| 
------------------------------------------------| 
------------------------------------------------| 
------------------------------------------------| 
------------------------------------------------| 
 
 
   S  S  S  S  S  S  S  S  S  S  S  S  S  S  S  S   
--19-16----16-19-16-20-16-19-16----16-19-16----16-| 
--------17----------------------17----------17----| 
--------------------------------------------------| 
--------------------------------------------------| 
--------------------------------------------------| 
--------------------------------------------------| 
 
 
   S  S  S  S  S  S  S  S  S  S  S  S  S E.    
--19-16----16-19-16-20-16-19-------16-19-----| 
--------17----------------------17-----------| 
-----------------------------19--------------| 
---------------------------------------------| 
---------------------------------------------| 
---------------------------------------------| 
 
 
  S S S S S S S S S S S S S S S S    S S S S S  S S S S  S  S S  S  S  S S   
--5-8-7-5-4-7-5-4-5-8-7-5-4-7-5-4-|--5-8-7-5-7-10-8-7-8-12-10-9-10-12-10-9-| 
----------------------------------|----------------------------------------| 
----------------------------------|----------------------------------------| 
----------------------------------|----------------------------------------| 
----------------------------------|----------------------------------------| 
----------------------------------|----------------------------------------| 
 
 
   S  S  S  S S  S  S S  S  S  S  S S  S  S S   
--10-13-12-10-9-12-10-9-10-13-12-10-9-12-10-9-| 
----------------------------------------------| 
----------------------------------------------| 
----------------------------------------------| 
----------------------------------------------| 
----------------------------------------------| 
 
 
   S  S  S  S  S  S  S  S  S  S  S  S S S S S   
--10-13-12-10-12-13-12-10-12-13-12-10-8-7-5-4-| 
----------------------------------------------| 
----------------------------------------------| 
----------------------------------------------| 
----------------------------------------------| 
----------------------------------------------| 
 
 
  S S S S S S S S S S S S S S S S    S S S S S  S S S S  S  S S  S  S  S S   
--5-8-7-5-4-7-5-4-5-8-7-5-4-7-5-4-|--5-8-7-5-7-10-8-7-8-12-10-9-10-12-10-9-| 
----------------------------------|----------------------------------------| 
----------------------------------|----------------------------------------| 
----------------------------------|----------------------------------------| 
----------------------------------|----------------------------------------| 
----------------------------------|----------------------------------------| 
 
 
   S  S  S  S S  S  S S  S  S  S  S S  S  S S   
--10-13-12-10-9-12-10-9-10-13-12-10-9-12-10-9-| 
----------------------------------------------| 
----------------------------------------------| 
----------------------------------------------| 
----------------------------------------------| 
----------------------------------------------| 
 
 
   S  S  S  S  S  S  S  S  H           S S S S S S S S S S S S S S S S   
--10-13-12-10-11-14-12-11-12--------|--5-8-7-5-4-7-5-4-5-8-7-5-4-7-5-4-| 
------------------------------------|----------------------------------| 
------------------------------------|----------------------------------| 
------------------------------------|----------------------------------| 
------------------------------------|----------------------------------| 
------------------------------------|----------------------------------| 
 
 
  S S S S S  S S S S  S  S S  S  S  S S   
--5-8-7-5-7-10-8-7-8-12-10-9-10-12-10-9-| 
----------------------------------------| 
----------------------------------------| 
----------------------------------------| 
----------------------------------------| 
----------------------------------------| 
 
 
   S  S  S  S S  S  S S  S  S  S  S S  S  S S   
--10-13-12-10-9-12-10-9-10-13-12-10-9-12-10-9-| 
----------------------------------------------| 
----------------------------------------------| 
----------------------------------------------| 
----------------------------------------------| 
----------------------------------------------| 
 
 
   S  S  S  S  S  S  S  S  S  S  S  S S S S S   
--10-13-12-10-11-14-12-11-12-13-12-10-8-7-5-4-| 
----------------------------------------------| 
----------------------------------------------| 
----------------------------------------------| 
----------------------------------------------| 
----------------------------------------------| 
 
 
  S S S S S S S S S S S S S S S S    S S S S S  S S S S  S  S S  S  S  S S   
--5-8-7-5-4-7-5-4-5-8-7-5-4-7-5-4-|--5-8-7-5-7-10-8-7-8-12-10-9-10-12-10-9-| 
----------------------------------|----------------------------------------| 
----------------------------------|----------------------------------------| 
----------------------------------|----------------------------------------| 
----------------------------------|----------------------------------------| 
----------------------------------|----------------------------------------| 
 
 
   S  S  S  S S  S  S S  S  S  S  S S  S  S S   
--10-13-12-10-9-12-10-9-10-13-12-10-9-12-10-9-| 
----------------------------------------------| 
----------------------------------------------| 
----------------------------------------------| 
----------------------------------------------| 
----------------------------------------------| 
 
 
   S  S  S  S  S  S  S  S  H          
--10-13-12-10-11-14-12-11-12--------| 
------------------------------------| 
------------------------------------| 
------------------------------------| 
------------------------------------| 
------------------------------------| 
 
 
   |--3--|  |--3--|  |--3--|  |--3--|  |--3--|  |--3--|  |--3--|  |--3--|   
   S  S  S  S  S  S  S  S  S  S  S  S  S  S  S  S  S  S  S  S  S  S  S  S   
--19-19-19-19-19-19-16-16-16-16-16-16-------------------------------------| 
--------------------------------------17-17-17-17-17-17-------------------| 
--------------------------------------------------------16-16-16-16-16-16-| 
--------------------------------------------------------------------------| 
--------------------------------------------------------------------------| 
--------------------------------------------------------------------------| 
 
 
   |--3--|  |--3--|  |--3--|  |--3--|  |--3--|  |--3--|  |--3--|  |--3--|   
   S  S  S  S  S  S  S  S  S  S  S  S  S  S  S  S  S  S  S  S  S  S  S  S   
--------------------------------------------------------------------------| 
--------------------------------------------------------------------------| 
--14-14-14-14-14-14-13-13-13-13-13-13-------------------------------------| 
--------------------------------------14-14-14-14-14-14-------------------| 
--------------------------------------------------------14-14-14-14-14-14-| 
--------------------------------------------------------------------------| 
 
 
   |--3--|  |--3--|  |--3--|  |--3--| |-3-| |-3-| |-3-| |-3-|   
   S  S  S  S  S  S  S  S  S  S  S  S S S S S S S S S S S S S   
--------------------------------------------------------------| 
--------------------------------------------------------------| 
--------------------------------------------------------------| 
--------------------------------------------------0-0-0-0-0-0-| 
--12-12-12-12-12-12-11-11-11-11-11-11-8-8-8-8-8-8-------------| 
--------------------------------------------------------------| 
 
 
  H        H           H        H           H        H          
--0--------1--------|-----------0--------|--------------------| 
--------------------|--3-----------------|--1--------3--------| 
--------------------|--------------------|--------------------| 
--------------------|--------------------|--------------------| 
--------------------|--------------------|--------------------| 
--------------------|--------------------|--------------------| 
 
 
  H        H           W                   W                  
--------------------|-------------------|-------------------| 
--0--------1--------|-------------------|-------------------| 
--------------------|--2----------------|--L----------------| 
--------------------|--2----------------|--L----------------| 
--------------------|--0----------------|--L----------------| 
--------------------|-------------------|-------------------| 
 
 
  W                   W                   W                   W                  
-------------------|-------------------|-------------------|-------------------| 
-------------------|-------------------|-------------------|-------------------| 
--L----------------|--L----------------|--L----------------|--L----------------| 
--L----------------|--L----------------|--L----------------|--L----------------| 
--L----------------|--L----------------|--L----------------|--L----------------| 
-------------------|-------------------|-------------------|-------------------| 
 
 
  W                   W                   H.             Q      
-------------------|-------------------|----------------------| 
-------------------|-------------------|----------------------| 
--L----------------|--L----------------|----------------------| 
--L----------------|--L----------------|----------------------| 
--L----------------|--L----------------|---------------3g5----| 
-------------------|-------------------|----------------------| 
 
 
                                |----3----|                           
  H.           Q       H        Q    Q    Q       Q    H.             
--------------------|--------------------------|--------------------| 
---------------5----|--3--------0--------------|--------------------| 
--5-----------------|----------------0---------|-------2------------| 
--------------------|---------------------0----|--2-----------------| 
--------------------|--------------------------|--------------------| 
--------------------|--------------------------|--------------------| 
 
 
  H.           Q       H.           Q       H.           Q      
--------------------|---------------0----|---------------3----| 
--------------------|--1-----------------|--3-----------------| 
--------------------|--------------------|--------------------| 
---------------0----|--------------------|--------------------| 
--------------------|--------------------|--------------------| 
--------------------|--------------------|--------------------| 
 
 
  W                   H.           Q       H.           Q      
--0----------------|---------------0----|--1------------3----| 
-------------------|--------------------|--3------------5----| 
-------------------|--------------------|--------------------| 
-------------------|--------------------|--------------------| 
-------------------|--------------------|--------------------| 
-------------------|--------------------|--------------------| 
 
 
  H        Q     Q        H.           Q        H.            Q      
--5--------7-----8----|---8------------7----|-----------------8----| 
--6--------8----10----|--10------------8----|--10------------10----| 
----------------------|---------------------|--10------------------| 
----------------------|---------------------|----------------------| 
----------------------|---------------------|----------------------| 
----------------------|---------------------|----------------------| 
 
 
  W                   H        E  E  E  E     W                  
--7----------------|-----------------------|-------------------| 
--9----------------|--------------------6--|--5----------------| 
-------------------|-----------9--9--7-----|-------------------| 
-------------------|-----------------------|-------------------| 
-------------------|-----------------------|-------------------| 
-------------------|-----------------------|-------------------| 
 
 
                                                     |----3----|      
  H.           Q       H.           Q       H        Q    Q    Q      
--------------------|--------------------|--------------------------| 
--------------------|---------------5----|--3--------0--------------| 
--------------------|--5-----------------|----------------0---------| 
--------------------|--------------------|---------------------0----| 
---------------5----|--------------------|--------------------------| 
--------------------|--------------------|--------------------------| 
 
 
  Q    H.              H.           Q       H.           Q      
--------------------|--------------------|---------------0----| 
--------------------|--------------------|--1-----------------| 
-------2------------|--------------------|--------------------| 
--2-----------------|---------------0----|--------------------| 
--------------------|--------------------|--------------------| 
--------------------|--------------------|--------------------| 
 
 
  H.           Q       W                   H.           Q      
---------------3----|--0----------------|---------------0----| 
--3-----------------|-------------------|--------------------| 
--------------------|-------------------|--------------------| 
--------------------|-------------------|--------------------| 
--------------------|-------------------|--------------------| 
--------------------|-------------------|--------------------| 
 
 
  H.           Q       H        Q     Q        H.           Q      
--1------------3----|--5--------7-----8----|---8------------7----| 
--3------------5----|--6--------8----10----|--10------------8----| 
--------------------|----------------------|---------------------| 
--------------------|----------------------|---------------------| 
--------------------|----------------------|---------------------| 
--------------------|----------------------|---------------------| 
 
 
   H.            Q       W                   H         E   E   E   E    
-----------------8----|--7----------------|-----------12--12--10--13--| 
--10------------------|-------------------|---------------------------| 
--10------------10----|--9----------------|---------------------------| 
----------------------|-------------------|---------------------------| 
----------------------|-------------------|---------------------------| 
----------------------|-------------------|---------------------------| 
 
 
   H.           E   E      H.           E  E      Q     Q     Q     Q      
--12---------------19--|--19------------------|--------------------------| 
-------------------21--|--21------------------|--------------------------| 
-----------------------|----------------------|--21----18----------------| 
-----------------------|----------------------|--------------19----17----| 
-----------------------|----------------------|--------------------------| 
-----------------------|----------------------|--------------------------| 
 
 
   W                    Q     Q     Q     Q        W                  
--------------------|--------------------------|--------------------| 
--------------------|--15----------------------|--------------------| 
--------------------|--------16----------------|--------------------| 
--15----------------|--------------17----15----|--14----------------| 
--------------------|--------------------------|--------------------| 
--------------------|--------------------------|--------------------| 
 
 
   Q     Q     Q     Q        W                    Q     Q     Q     Q      
--------------------------|--------------------|--------------------------| 
--13----------------------|--------------------|--------------------------| 
--------14----------------|--------------------|--------11----------------| 
--------------15----14----|--12----------------|--13----------13----------| 
--------------------------|--------------------|--------------------14----| 
--------------------------|--------------------|--------------------------| 
 
 
   W                    Q     Q     Q     Q        W                  
--------------------|--12----------------------|--------------------| 
--------------------|--------14----------------|--------------------| 
--------------------|--------------14----12----|--10----------------| 
--14----------------|--------------------------|--------------------| 
--------------------|--------------------------|--------------------| 
--------------------|--------------------------|--------------------| 
 
 
   Q    Q    Q    Q       W                   Q    Q    Q    Q      
--10----7--------------|-------------------|--8----5--------------| 
-------------8----6----|--5----------------|------------6----5----| 
-----------------------|-------------------|----------------------| 
-----------------------|-------------------|----------------------| 
-----------------------|-------------------|----------------------| 
-----------------------|-------------------|----------------------| 
 
 
  W                   Q    Q    Q    Q       W                  
-------------------|-------2--------------|--0----------------| 
--3----------------|--4---------4----0----|-------------------| 
-------------------|----------------------|-------------------| 
-------------------|----------------------|-------------------| 
-------------------|----------------------|-------------------| 
-------------------|----------------------|-------------------| 
 
 
   S S S S S S S S S S S S S S S S   
--12-0-0-0-8-0-0-0-7-0-0-0-5-0-0-0-| 
-----------------------------------| 
-----------------------------------| 
-----------------------------------| 
-----------------------------------| 
-----------------------------------| 
 
 
   S  S  S  S  S  S  S  S  S  S  S  S  S  S  S  S   
--12-13-12-10----------------------10-12-13-12-10-| 
--------------13-12-10----10-12-13----------------| 
-----------------------13-------------------------| 
--------------------------------------------------| 
--------------------------------------------------| 
--------------------------------------------------| 
 
 
   S S S S  S S S S S S S S S S S S   
--12-0-0-0-10-0-0-0-7-0-0-0-4-0-0-0-| 
------------------------------------| 
------------------------------------| 
------------------------------------| 
------------------------------------| 
------------------------------------| 
 
 
   S  S  S  S  S  S  S  S  S  S  S  S  S  S  S  S   
--12-13-12-10----------------------10-12-13-12-10-| 
--------------13-12-10----10-12-13----------------| 
-----------------------13-------------------------| 
--------------------------------------------------| 
--------------------------------------------------| 
--------------------------------------------------| 
 
 
   S S S S S S S S S S S S S S S S   
--12-0-0-0-8-0-0-0-7-0-0-0-5-0-0-0-| 
-----------------------------------| 
-----------------------------------| 
-----------------------------------| 
-----------------------------------| 
-----------------------------------| 
 
 
   S  S  S  S  S  S  S  S  S  S  S  S  S  S  S  S   
--12-13-12-10----------------------10-12-13-12-10-| 
--------------13-12-10----10-12-13----------------| 
-----------------------13-------------------------| 
--------------------------------------------------| 
--------------------------------------------------| 
--------------------------------------------------| 
 
 
   S S S S  S S S S S S S S S S S S   
--12-0-0-0-10-0-0-0-7-0-0-0-4-0-0-0-| 
------------------------------------| 
------------------------------------| 
------------------------------------| 
------------------------------------| 
------------------------------------| 
 
 
   S  S  S  S  S  S  S  S  S  S  S  S  S  S  S  S   
--12-13-12-10----------------------10-12-13-12-10-| 
--------------13-12-10----10-12-13----------------| 
-----------------------13-------------------------| 
--------------------------------------------------| 
--------------------------------------------------| 
--------------------------------------------------| 
 
 
   S S S S S S S S S S S S S S S S   
--12-0-0-0-8-0-0-0-7-0-0-0-5-0-0-0-| 
-----------------------------------| 
-----------------------------------| 
-----------------------------------| 
-----------------------------------| 
-----------------------------------| 
 
 
   S  S  S  S  S  S  S  S  S  S  S  S  S  S  S  S   
--12-13-12-10----------------------10-12-13-12-10-| 
--------------13-12-10----10-12-13----------------| 
-----------------------13-------------------------| 
--------------------------------------------------| 
--------------------------------------------------| 
--------------------------------------------------| 
 
 
   S S S S  S S S S S S S S S S S S   
--12-0-0-0-10-0-0-0-7-0-0-0-4-0-0-0-| 
------------------------------------| 
------------------------------------| 
------------------------------------| 
------------------------------------| 
------------------------------------| 
 
 
   S  S  S  S  S  S  S  S  S  S  S  S  S  S  S  S   
--12-13-12-10----------------------10-12-13-12-10-| 
--------------13-12-10----10-12-13----------------| 
-----------------------13-------------------------| 
--------------------------------------------------| 
--------------------------------------------------| 
--------------------------------------------------| 
 
 
   S S S S S S S S S S S S S S S S   
--12-0-0-0-8-0-0-0-7-0-0-0-5-0-0-0-| 
-----------------------------------| 
-----------------------------------| 
-----------------------------------| 
-----------------------------------| 
-----------------------------------| 
 
 
   S  S  S  S  S  S  S  S  S  S  S  S  S  S  S  S   
--12-13-12-10----------------------10-12-13-12-10-| 
--------------13-12-10----10-12-13----------------| 
-----------------------13-------------------------| 
--------------------------------------------------| 
--------------------------------------------------| 
--------------------------------------------------| 
 
 
   S S S S  S S S S S S S S S S S S   
--12-0-0-0-10-0-0-0-7-0-0-0-4-0-0-0-| 
------------------------------------| 
------------------------------------| 
------------------------------------| 
------------------------------------| 
------------------------------------| 
 
 
   S  S  S  S  S  S  S  S  S  S  S  S  S  S  S  S   
--12-13-12-10----------------------10-12-13-12-10-| 
--------------13-12-10----10-12-13----------------| 
-----------------------13-------------------------| 
--------------------------------------------------| 
--------------------------------------------------| 
--------------------------------------------------| 
 
 
   S S S S S S S S S S S S S S S S   
--12-0-0-0-8-0-0-0-7-0-0-0-5-0-0-0-| 
-----------------------------------| 
-----------------------------------| 
-----------------------------------| 
-----------------------------------| 
-----------------------------------| 
 
 
   S  S  S  S  S  S  S  S  S  S  S  S  S  S  S  S   
--12-13-12-10----------------------10-12-13-12-10-| 
--------------13-12-10----10-12-13----------------| 
-----------------------13-------------------------| 
--------------------------------------------------| 
--------------------------------------------------| 
--------------------------------------------------| 
 
 
   S S S S  S S S S S S S S S S S S   
--12-0-0-0-10-0-0-0-7-0-0-0-4-0-0-0-| 
------------------------------------| 
------------------------------------| 
------------------------------------| 
------------------------------------| 
------------------------------------| 
 
 
   S  S  S  S  S  S  S  S  S  S  S  S  S  S  S  S   
--12-13-12-10----------------------10-12-13-12-10-| 
--------------13-12-10----10-12-13----------------| 
-----------------------13-------------------------| 
--------------------------------------------------| 
--------------------------------------------------| 
--------------------------------------------------| 
 
 
   S S S S S S S S S S S S S S S S   
--12-0-0-0-8-0-0-0-7-0-0-0-5-0-0-0-| 
-----------------------------------| 
-----------------------------------| 
-----------------------------------| 
-----------------------------------| 
-----------------------------------| 
 
 
   S  S  S  S  S  S  S  S  S  S  S  S  S  S  S  S   
--12-13-12-10----------------------10-12-13-12-10-| 
--------------13-12-10----10-12-13----------------| 
-----------------------13-------------------------| 
--------------------------------------------------| 
--------------------------------------------------| 
--------------------------------------------------| 
 
 
   S S S S  S S S S S S S S S S S S   
--12-0-0-0-10-0-0-0-7-0-0-0-4-0-0-0-| 
------------------------------------| 
------------------------------------| 
------------------------------------| 
------------------------------------| 
------------------------------------| 
 
 
   S  S  S  S  S  S  S  S  S  S  S  S  S  S  S  S   
--12-13-12-10----------------------10-12-13-12-10-| 
--------------13-12-10----10-12-13----------------| 
-----------------------13-------------------------| 
--------------------------------------------------| 
--------------------------------------------------| 
--------------------------------------------------| 
 
 
   S  S  S  S S S S S S S S  S  S  S  S  S   
--12-13-12-10-8-7-5-4-5-7-8-10-12-13-12-10-| 
-------------------------------------------| 
-------------------------------------------| 
-------------------------------------------| 
-------------------------------------------| 
-------------------------------------------| 
 
 
   S  S  S  S S S S S S S S  S  S  S  S  S     Q     Q     Q     Q      
--12-13-12-10-8-7-5-4-5-7-8-10-12-13-12-10-|--12----13----10----12----| 
-------------------------------------------|--------------------------| 
-------------------------------------------|--------------------------| 
-------------------------------------------|--------------------------| 
-------------------------------------------|--------------------------| 
-------------------------------------------|--------------------------| 
 
 
   Q     Q     Q     Q        Q     Q     Q     Q      
--------10----------------|--------------------------| 
--13----------12----13----|--------12----------------| 
--------------------------|--14----------13----14----| 
--------------------------|--------------------------| 
--------------------------|--------------------------| 
--------------------------|--------------------------| 
 
 
   Q     Q     Q     Q        Q     Q     Q     Q      
--------------------------|--------------------------| 
--------------------------|--------------------------| 
--------------------------|--------------------------| 
--14----15----12----14----|--------12----------------| 
--------------------------|--15----------14----15----| 
--------------------------|--------------------------| 
 
 
   Q     Q     Q     Q        Q     Q     Q     Q       Q     Q    Q    Q      
--------------------------|--------------------------|-----------------------| 
--------------------------|--------------------------|-----------------------| 
--------------------------|--------------------------|-----------------------| 
--------------------------|--------------------------|-----------------------| 
--12----14----11----12----|--------------------------|-----------------------| 
--------------------------|--12----13----10----12----|--8----10----7----8----| 
 
 
  W                   W                   W                   W                  
-------------------|-------------------|-------------------|-------------------| 
-------------------|-------------------|-------------------|-------------------| 
-------------------|-------------------|-------------------|-------------------| 
--3----------------|--L----------------|--L----------------|--L----------------| 
--3----------------|--L----------------|--L----------------|--L----------------| 
--1----------------|--L----------------|--L----------------|--L----------------| 
 
 
  W                   W                  
-------------------|-------------------| 
-------------------|-------------------| 
-------------------|-------------------| 
--L----------------|--L----------------| 
--L----------------|--L----------------| 
--L----------------|--L----------------| 
 
 
   |-----5-----|  |-----5-----|  |-----5-----|  |-----5-----|   
   S  S  S  S  S  S  S  S  S  S  S  S  S  S  S  S  S  S  S  S   
--------------------------------------------------------------| 
--------------------------------------------------------------| 
--------------------------------------------------------12-14-| 
--------------------------------------12-14-15-12-14-15-------| 
--------------------12-14-15-12-14-15-------------------------| 
--12-13-15-12-13-15-------------------------------------------| 
 
 
   |-----5-----|  |-----5-----|                
   S  S  S  S  S  S  S  S  S  S  E  E  Q       
--------------------------------17----------|| 
--------------13-15-17-13-15-17-------------|| 
--16-12-14-16-------------------------------|| 
--------------------------------------------|| 
--------------------------------------------|| 
--------------------------------------------|| 
 
 
 
 
Duration Legend 
--------------- 
W - whole 
H - half 
Q - quarter 
E - 8th 
S - 16th 
T - 32nd 
X - 64th 
. - note dotted 
|-n-|  - n-tuplets 
 
 
Tablature Legend 
---------------- 
L - tied note 
x - dead note 
g - grace note 
(n) - ghost note 
> - accentuded note 
NH - natural harmonic 
AH - artificial harmonic 
TH - tapped harmonic 
SH - semi harmonic 
PH - pitch harmonic 
h - hammer on 
p - pull off 
b - bend 
br - bendRelease 
pb - preBend 
pbr - preBendRelease 
brb - bendReleaseBend 
\n/ - tremolo bar dip 
\n - tremolo bar dive 
-/n - tremolo bar Release up 
/n\ - tremolo bar inverted dip 
/n - tremolo bar return 
-\n - tremolo bar Release down 
S - shift slide 
s - legato slide 
/ -  slide into from below or out of upwards 
\ -  slide into from above or out of downwards 
~ - vibrato 
W - wide vibrato 
tr - trill 
TP - tremolo picking 
T - tapping 
S - slap 
P - pop 
< - fade in 
^ - brush up 
v - brush down 
 

		  

See also:

tabs Nightwish - Bless the child tabs HIM - Right Here In My Arms tabs Nightwish - Crimson Tide / Deep Blue Sea tabs Stratovarius - Infinity tabs HIM - It's All Tears (Unplugged) tabs Stratovarius - Distant Skies
e-chords

Other versions:

tabs Stratovarius - _Stratosphere_
auto scroll beats size up size down change color hide chords drawings
tab show chords e-chords YouTube Clip e-chords hide all tabs e-chords go to top tab

share