Stoney Larue

One Chord Song

Stoney Larue

tabs Beginner beginner

save to print version add songbook text version e-mail correct tuner
chordsukulelecavacokeyboardtabbassdrumsharmonicaflute Guitar Pro
close

there isn't a video lesson for this song

chords

One Chord Song

	  		Tabbed by Andrew Magness 
[email protected] 
 
This is from a live recording from the big 
ski trip in Steamboat. It may not be exactly 
what will be on the Red Dirt Album... sometimes 
Stoney likes to throw in extra words... Fun 
song to play anyways. 
 
DROP D Tuning 
 
 
RIFF 1: 
 
E|----------------------------------------------------------| 
B|-----------------------------------------------3----------| 
G|------------------2-------------------------2-------------| 
D|-----------0--2/4---4--0-------------0--2/4---------------| 
A|------0h2-----------------------0h2-----------------------| 
D|---0--------------------------0---------------------------| 
 
 
RIFF 2: 
 
E|----------------------------------------------------------| 
B|----------------------------------------------------------| 
G|------------------2--------------2p0----------------------| 
D|-----------0--2/4---4--0--------------4p0-------2-0-------| 
A|------0h2----------------------------------0h2------------| 
D|---0------------------------------------------------------| 
 
 
 
 
INTRO 
 
RIFF 1 & 2 
 
D 
My baby she talks softly 
My baby she found out 
You catch more flies with honey 
More with a whisper than a shout 
 
RIFF 1 
 
My baby she don't scold me 
No she don't like to fight 
She knows a little secret 
How to keep me home at night 
 
RIFF 1 
 
My baby she talks softly 
My baby she found out 
You catch more flies with honey 
More with a whisper than a shout 
 
RIFF 1  
 
We like to sing together 
Harmonies all night long 
She don't need flash or fancy 
She loves my one chord song 
 
 
One chord song 
All night long 
It never does me wrong 
One chord song 
All night long 
It never does me wrong 
 
RIFF 1 & 2 
 
We like to sing together 
Harmonies all night long 
She don't need flash or fancy 
She loves my one chord song 
 
RIFF 1 
 
My baby she don't scold me 
No she don't like to fight 
She knows that little secret 
How to keep me home at night 
 
One chord song 
All night long 
It never does me wrong 
One chord song 
All night long 
It never does me wrong 
 
RIFF 1 & 2 x2 
		  

Full key step upFull key step up
Half key step upHalf key step up
Half key step downHalf key step down
Full key step downFull key step down
hide glossary

See also:

tabs Simpsons - The simpsons tabs Kenny Chesney - I Go Back tabs Alan Jackson - Chattahoochee Correct tabs Lonestar - Amazed tabs Alison Krauss - You Say Nothing At All tabs James Taylor - Youve Got A Friend (ver. 2)
e-chords

Other versions:

tabs Stoney Larue - One Chord Song
auto scroll beats size up size down change color hide chords drawings
tab show chords e-chords YouTube Clip e-chords hide all tabs e-chords go to top tab

share