Stevie Wonder

home > Stevie Wonder

Isn't She Lovely Tab

Stevie Wonder

Difficulty: BeginnerBeginner

tuner correct add songbook print version text version save to e-mail
chordsukulelecavacokeyboardtabbassdrumsharmonicsflute Guitar Pro
chords

Isn't She Lovely

Year: 1976 - Album: Definitive Collection

(Stevie Wonder)

	  
e|---------0----------5------------------------2-------------------2-| 
B|---------3----------7----------5----------3--0----------0--------0-| 
G|---------0----------6----------5----------4--2----------0--------2-| 
D|---2-----2----------5----------4----------4--1---0------2--------1-| 
A|-2-------2----------5---0-3-5--5---7-5-------2-----2-3--3--0-1-2-2-| 
E|-----0---0---0-3-5--5------------------3--3------------------------| 

e|-7-8-7--5------7-8-7--5-----------7-8-7--5-----7-8-7--5------------| 
B|--------7-8-7---------5-8--5--3----------7--7---------5-8--5-3-----| 
G|--------7-7-6---------5-5--4--4----------7--6---------5-5--4-4-----| 
D|----------5-5---------5-5--3--3-------------5---------5-5--3-3-----| 
A|--------7-7-----------5-5----------------7--7---------5-5----------| 
E|------------5--------------3-------------------------------3-------| 

e|--7-8-10--10--7-8-10---8--7-7--------------0-7-8-7--5--------3-----| 
B|----------10-----------9----8--8-10-8--7-5----------5-8-5--5-3-----| 
G|----------9------------7----7----------6------------5-5-5--7-4-----| 
D|----------8------------8---------------5--------------5-5--5-------| 
A|----------------------------7-----------------------5-5-5--5-------| 
E|----------8----------------------------5---------------------3-----| 

e|-------------------12-15--15\-| 
B|-------------12-15--------15\-| 
G|-------12-14------------------| 
D|-12-14------------------------| 
A|------------------------------| 
E|------------------------------| 

	  

there isn't a video lesson for this song

request
Search
auto scroll beats size up size down change color hide chords drawings
tab show chords e-chords YouTube Clip e-chords hide all tabs e-chords go to top tab