Steve Miller Band

The Stake

Steve Miller Band

tabs

by  SABRJOAO

save to print version add songbook text version e-mail correct tuner
chordsukulelecavacokeyboardtabbassdrumsharmonicaflute Guitar Pro
close

there isn't a video lesson for this song

chords

The Stake

	  		


between verses it plays: 

e|---------------------------------------------------------------------------| 
B|---------------------------------------------------------------------------| 
G|----8---8---8--10--8-------------------------------------------------------| 
D|----8---8---8--10--8--8----------------------------------------------------| 
A|----6---6---6--8---6--8----------------------------------------------------| 
E|--8---8---8-----------6----------------------------------------------------| 

the Chorus lick is: 

e|---------------------------------------------------------------------------| 
B|---------------------------------------------------------------------------| 
G|----------13b--------------------------------------------------------------| 
D|----13-15-----15-13--------------------------------------------------------| 
A|-15-----------------15----13-----------------------------------------------| 
E|-----------------------16----11/13-----------------------------------------| 

Solo: 

e|--19b-19b-19b--------------------------------------------------------------| 
B|---------------19brp17--19b--19brp17--19b--19b-----------------------------| 
G|---------------------------------------------------------------------------| 
D|---------------------------------------------------------------------------| 
A|---------------------------------------------------------------------------| 
E|---------------------------------------------------------------------------| 

e|--19b-19b-19b--------------------------------------------------------------| 
B|---------------19brp17--19b--pb17r-----------------------------------------| 
G|-----------------------------------17h19--17h19p17------------------------| 
D|---------------------------------------------------------------------------| 
A|---------------------------------------------------------------------------| 
E|---------------------------------------------------------------------------| 

e|--19b-19b-19b--------------------------------------------------------------| 
B|---------------19brp17--19b--19brp17--19b--19b-----------------------------| 
G|---------------------------------------------------------------------------| 
D|---------------------------------------------------------------------------| 
A|---------------------------------------------------------------------------| 
E|---------------------------------------------------------------------------| 

e|--19b-19b-19b--------------------------------------------------------------| 
B|---------------19brp17--19b--pb17r-----------------------------------------| 
G|-----------------------------------17h19--17-------------------------------| 
D|---------------------------------------------------------------------------| 
A|---------------------------------------------------------------------------| 
E|---------------------------------------------------------------------------| 

e|--------4------------------|-----------16----------------------------------| 
B|----4-6---6-4--------------|-----16-18----18-16----------------------------| 
G|--5-----------5---3--------|--17----------------17----15-------------------| 
D|----------------6---1/3----|-----------------------18----13/15-------------| 
A|---------------------------|-----------------------------------------------| 
E|---------------------------|-----------------------------------------------| 

e|-------------|-------------|----8-8---6-6---4-4--------------|-------------| 
B|-15b---------|-------4/6---|--6-----6-----6-------6-6---9p6--|-------------| 
G|-15b--13-----|--3b/5-------|--------------------8-----8------|-------------| 
D|---------15--|-------------|---------------------------------|-------------| 
A|-------------|-------------|---------------------------------|-------------| 
E|-------------|-------------|---------------------------------|-------------| 


                             |   Lots of vibrato here | 
e|---------------------------------------------------------------------------| 
B|-----16-16-16--------------------------------------------------------------| 
G|-15b----------pb15r--15b-13b-13b-13b-13b-13b--10-8-10---8-10---------------| 
D|-------------------------------------------------------------8h10p8--------| 
A|--------------------------------------------------------------------8------| 
E|---------------------------------------------------------------------------| 

e|----------------------------|-------13------| 
B|----------------------------|--16b--16b-----| 
G|-----------10---------------|---------------| etc., etc., it fades while jammin Fminor pentatonic 
D|------8-10----10--------8---|---------------| lots of double stops, cool stuff 
A|-8-11-------------8-11----8-|---------------| 
E|----------------------------|---------------| 
		  

See also:

tabs Jimi Hendrix - Manic Depression tabs Creedence Clearwater Revival - Have You Ever Seen The Rain tabs Creedence Clearwater Revival - Green River tabs Journey - Do Stop Believing tabs Jimi Hendrix - Hey Joe (Live) tabs Creedence Clearwater Revival - Bad Moon Rising Drop D
e-chords

Other versions:

tabs Steve Miller Band - The Stake tabs Devilment - The Stake In My Heart
auto scroll beats size up size down change color hide chords drawings
tab show chords e-chords YouTube Clip e-chords hide all tabs e-chords go to top tab

share