Soundgarden

Ty Cobb

Soundgarden

tabs

save to print version add songbook text version e-mail correct tuner
chordsukulelecavacokeyboardtabbassdrumsharmonicaflute Guitar Pro
close

there isn't a video lesson for this song

chords

Ty Cobb

Year: 1996 - Album: A-Sides

	  		 
This song is really really fast and cool. The slides can be hard to do w/o 
practice. 
 
Verse and Intro: 
E--------------------|------------------|-------------------| 
B--------------------|------------------|-------------------| 
G--8/999999999999999-|-9999999999999999-|-8/999999999999999-| 
D--8/999999999999999-|-9999999999999999-|-8/999999999999999-| 
A--6/777777777777777-|-7777777777777777-|-6/777777777777777-| 
E--------------------|------------------|-------------------| 
                                                                  
E--------------------------|---------------------------| 
B--------------------------|---------------------------| 
G--12-6/-/12-9/-/12-6-|--12-6/-/12-9/-/12-6--| 
D--12-6/-/12-9/-/12-6-|--12-6/-/12-9/-/12-6--| 
A--10-4/-/10-7/-/10-4-|--10-4/-/10-7/-/10-4--| 
E--------------------------|---------------------------| 
 
 
Chorus: 
E------------------|------------------|------------------| 
B------------------|------------------|------------------| 
G-9-99999999999999-|-7-77777777777777-|------------------| 
D-9-99999999999999-|-7-77777777777777-|-7-77777777777777-| 
A-7-77777777777777-|-5-55555555555555-|-7-77777777777777-| 
E------------------|------------------|-5-55555555555555-| 
 
E------------------| 
B------------------| 
G------------------| 
D------------------| 
A-7-77777777777777-| 
E-0-00000000000000-| 
 
Fig.2 
E-------------------|------------------|--------------------| 
B-------------------|------------------|--------------------| 
G--9-99999999999999-|-7-77777777777777-|--------------------| 
D--9-99999999999999-|-7-77777777777777-|--7-77777777777777--| 
A--7-77777777777777-|-5-55555555555555-|--7-77777777777777--| 
E-------------------|------------------|--5-55555555555555--| 
                                
E------------------------------|--------------------------------| 
B------------------------------|--------------------------------| 
G------------------------------|--------------------------------| 
D------------------------------|--------------------------------| 
A------------------------------|--------------------------------| 
E-0-5-3h0-0-0-5h0-0-0-3-0--3p5-|-3p5-0-3-5h0-0-0--5h0-0-3-0-3p5-| 
 
 
Riff A 
E-------------------------------|-------------------------------| 
B-------------------------------|-------------------------------| 
G-------------------------------|-------------------------------| 
D-------------------------------|-------------------------------| 
A-------------------------------|-------------------------------| 
E--0-5-3h0-0-0--5h0-0-3--0--3p5-|-0-3-5h0-0-0--5h0-0--3--0--3p5-| 
 
 
Fig.3 
E------------------------------| 
B------------------------------| 
G--------------------------/9--| 
D--------------------------/9--| 
A---10p12-10p12-9p10--7-7------| 
E------------------------------| 
 
 
Fig.4 
E--------------------|----------|-------------------------| 
B--------------------|----------|-------------------------| 
G--9-999999-7-777777-|----------|-------------------------| 
D--9-999999-7-777777-|-7-777777-|-------------------------| 
A--7-777777-5-555555-|-7-777777-|-------------------------| 
E--------------------|-5-555555-|-0-5-3h0-5h0-0-3--0--3p5-| 
 
E-------------------------|    
B-------------------------| 
G-------------------------| 
D-------------------------| 
A-------------------------| 
E--0-3-5h0-0-0--3--0--3p5-| 
 
 
 
Riff B 
E-------------------------------|-------------------------------| 
B-------------------------------|-------------------------------| 
G-/9----------------------------|-/9----------------------------| 
D-/9----------------------------|-/9----------------------------| 
A-------------------------------|-------------------------------| 
E--0-5-3h0-0-0--5h0-0-3--0--3p5-|--0-3-5h0-0-0--5h0-0--3-0--3p5-| 
 
 
Fig 5 
E--------------------------|---------------------------| 
B--------------------------|---------------------------| 
G--12-6/-/12-9/-/12-6-|--12-6/-/12-9/-/12-6--| 
D--12-6/-/12-9/-/12-6-|--12-6/-/12-9/-/12-6--| 
A--10-4/-/10-7/-/10-4-|--10-4/-/10-7/-/10-4--| 
E--------------------------|---------------------------| 
 
Play in this order: 
Verse X3 
Chorus X2 
Verse X3 
Fig 2 X2 
Riff A X1 
Fig 3 X6.5 
Fig 4 X2 
Fig 2 X2 
Riff B X6 
Rest for 7 bars. 
Fig 5 X1 
Verse X1 but end on last E5 
 
_______________________________________________________ 
Contribuição: Pedro Monteiro([email protected]) 

		  

Full key step upFull key step up
Half key step upHalf key step up
Half key step downHalf key step down
Full key step downFull key step down
hide glossary

See also:

tabs Alice in Chains - Again tabs Nirvana - Heart-shaped Box tabs Nirvana - All Apologies Acoustic tabs Pearl Jam - Better Man tabs Pearl Jam - Alone tabs Nirvana - Smells like teen Spirit - Solo
e-chords

Other versions:

tabs Soundgarden - Ty Cobb
auto scroll beats size up size down change color hide chords drawings
tab show chords e-chords YouTube Clip e-chords hide all tabs e-chords go to top tab

share