Soundgarden

Blood On The Valley Floor

Soundgarden

tabs

by  EDUCASTILHO

save to print version add songbook text version e-mail correct tuner
chordsukulelecavacokeyboardtabbassdrumsharmonicaflute Guitar Pro
close

there isn't a video lesson for this song

chords

Blood On The Valley Floor

	  		

Tuning:  C   G   C   G   B   E  


|----------------------------------------| 
|----------------------------------------| 
|--5h7-7-7-7-5-3--3h5-5-5-5-5-3h5p3p0----| 
|----------------------------------------| 
|----------------------------------------| 
|----------------------------------------| 


Verse: x2 
|-----------------------------| 
|-----------------------------|x4 
|-----------------------------|  
|-----------------------------| 
|---5--5----7--7-7-7-7-5-3----| 
|---0--0----0--0-0-0-0-0-0----| 

|------------------------------------------------------------------------------------------| 
|------------------------------------------------------------------------------------------| 
|------------------------------------------------------5h7-7-7-7-5-3--3h5-5-5-5-5-3h5p3p0--|  
|------------------------------------------------------------------------------------------| 
|---5--5----7--7-7-7-7-5-3-----5--5----7--7-7-7-7-5-3--------------------------------------| 
|---0--0----0--0-0-0-0-0-0-----0--0----0--0-0-0-0-0-0--------------------------------------| 
    

Chorus: 
                             x2 
|------------------------------|-----------------------------------| 
|------------------------------|-----------------------------------| 
|--3-----0---------------------|-----------------------------------| 
|--5--5--0----------5--5-7-----|-----------------4-----------------| 
|--3--3--0-----0-3--3--3-5-----|--8--7---------5----3------5---3---| 
|-----3--0-----0-3--3--3-5-----|-------5-3---4--------4-2----3-----| 

Verse 

G2: 
|--------0-------| 
|----------------| 
|---2/3----------|x2 
|----------------| 
|----------------| 
|----------------| 


Chorus 

G2:w/ slide             x2 
|------------------------| 
|------------------------| 
|---3/5------5\3----5/7--| 
|------------------------| 
|------------------------| 
|------------------------| 



Post Chorus:  
G1:                      x2 
|---------------------------|----------------| 
|--0---0-0-0-0--------------|----------------| 
|--7---7-7-7-5--------------|----------------| 
|--7---7-7-7-5---5-5-5/7-7--|--5-5-5/7-7-----| 
|--0---0-0-0-0---5-5-5/7-7--|--5-5-5/7-7-----| 
|----------------5-5-5/7-7--|--5-5-5/7-7-----| 


G2:w/ slide             
|-----------------------------------------------------------| 
|-----------------------------------------------------------| 
|--7/12------3/5-5-5\0-----10/12------0/5-5-5\0---0/5-5-5\0-| 
|-----------------------------------------------------------| 
|-----------------------------------------------------------| 
|-----------------------------------------------------------| 


G3: 
|---------------------| 
|---------------------| 
|--10\9-7---7-7/12----| 
|---------------------| 
|--10\9-7---7-7/12----| 
|---------------------| 



 G1  Solo backing: 
                       x2                       
|-------------------------|----------------------------------------| 
|-------------------------|----------------------------------------| 
|-------------------------|----------------------------------------| x2 
|--------4----------------|----------------------4-----------------| 
|--5--5-----3------5---3--|-5--5--8--7---------5----3------3---5---| 
|--0--0-------4-2----3----|-0--0-------5-3---4--------4-2----3-----| 




Solo: 
|----------------------------------------------------------------| 
|----------------------------------------------------------------| 
|--14/15-14-12------14/15/17---12\10--9/10---------7b--r-5h7p5---| 
|----------------------------------------------------------------| 
|--14/15-14-12------14/15/17---12\10--9/10-----------------------| 
|----------------------------------------------------------------| 

|----------------------------------------------------------------------------------| 
|----------------------------------------------------------------------------------| 
|--12/15--14/15--12-10-9-10/12\9-9----9/10\9-7-5--7-9-9-----15\12-10-9-10/12-10-9--| 
|----------------------------------------------------------------------------------| 
|--12/15--14/15--12-10-9-10/12\9-9----9/10\9-7-5--7-9-9-----15\12-10-9-10/12-10-9--| 
|----------------------------------------------------------------------------------| 

|-------------------------------------------------------------| 
|-------------------------------------------------------------| 
|-9/12-10-9--9-9\7--5/7\5--3/5\2--3/-------------5b-3h5-0-----| 
|-------------------------------------------------------------| 
|-9/12-10-9--9-9\7--5/7\5--3/5\2--3/--------------------------| 
|-------------------------------------------------------------| 

Verse 

Chorus 

End on: 
|----------| 
|----------| 
|----------| 
|----------| 
|---5--5---| 
|---0--0---|  
		  

See also:

tabs Nirvana - smell like teens spirit ( ver. 1 ) tabs Nirvana - Come as you are(correct ver.) tabs Alice in Chains - Angry Chair tabs Nirvana - Blew tabs Nirvana - Something In The Way (Nevermind) tabs Nirvana - smell like teen spirit (ver. 2)
e-chords

Other versions:

tabs Soundgarden - Blood On The Valley Floor
auto scroll beats size up size down change color hide chords drawings
tab show chords e-chords YouTube Clip e-chords hide all tabs e-chords go to top tab

share