Sonata Arctica

Gravenimage

Sonata Arctica

tabs

save to print version add songbook text version e-mail correct tuner
chordsukulelecavacokeyboardtabbassdrumsharmonicaflute Guitar Pro
close

there isn't a video lesson for this song

chords

Gravenimage

Year: 2003 - Album: Winterheart's Guild

	  		 
Tune down 1/2  step! 
 
                 Guitar in at (0:36)                      *2 
e:--------------|--------------------------------------------|---------------| 
B:--------------|--------------------------------------------|---------------| 
G:----Intro-----|---------------7----------------------------|----Verse-1----| 
D:--(keyboard)--|---3-----5-----7---------3-----5-----7------|--(no-guitar)--| 
A:--------------|---3-----5-----5---------3-----5-----7------|---------------| 
E:--------------|---1-----3---------------1-----3-----5------|---------------| 
 
 
 
 
                     Guitar in at (2:26)                         Guitar solo 
e:|---------------|---------------------------|---------------|---------8----| 
B:|---------------|---------------------------|---------------|--10----------| 
G:|----Verse-2----|---------------------------|----Verse-3----|--------------| 
D:|--(no-guitar)--|---9--10---3-----5-----7---|--(no-guitar)--|--------------| 
A:|---------------|---7---8---3-----5-----7---|---------------|--------------| 
E:|---------------|---7---8---1-----3-----5---|---------------|--------------| 
 
 
 
                                                                          
with 
                                                                          
A.H. 
e:-7---------------------------------------------------8-----7---------------| 
B:-------8--------------------------------7--8--10-----------------8---------| 
G:-------------7------11b(12)r-9--11-------------------------------------4b(5| 
D:---------------------------------------------------------------------------| 
A:---------------------------------------------------------------------------| 
E:---------------------------------------------------------------------------| 
 
 
 
   wah 
 
e:---------------------------------------------------------------------------| 
B:-----------------------------------------------------------7-----7h8p7\5---| 
G:)r----------------------------------7b(9)r--5--7-----7--9----------------7p| 
D:---7-5-4--------------------5--7-------------------------------------------| 
A:---------7-5-3-5--7~-----7-------------------------------------------------| 
E:---------------------------------------------------------------------------| 
 
 
 
 
                                                     Verse 4 
e:------------------------------------------------|--------------------------| 
B:------------------------------------------------|--------------------------| 
G:5h7--5~----------------9-----7------------------|--------------------------| 
D:-----------7--5--7-----------------9-----7~~----|--7-----------------------| 
A:------------------------------------------------|--7-----------------------| 
E:------------------------------------------------|--5--5-5-5-5-5-5-5-5-5-5--| 
                                                       
pm...................pm 
 
 
 
 
e:---------------------------------------------------------------------------| 
B:---------------------------------------------------------------------------| 
G:---------------------------------------------------------------------------| 
D:---------------------------------------------------------------------------| 
A:5-5-5-5-5-5-5-5-5-5-5-5--3-3-3-3-3-3-3-3-3-3-3-3--2-2-2-2-2-2-2-2-2-2-2-2--| 
E:---------------------------------------------------------------------------| 
   
.......................pm.......................pm.......................pm 
 
 
 
 
e:---------------------------------------------------------------------------| 
B:---------------------------------------------------------------------------| 
G:---------------------------------------------------------------------------| 
D:---------------------------------------------------------------------------| 
A:-------------------------5-5-5-5-5-5-5-5-5-5-5-5--3-3-3-3-3-3-3-3-3-5-5-3-3| 
E:5-5-5-5-5-5-5-5-5-5-5-5----------------------------------------------------| 
   
.......................pm.......................pm......................... 
 
 
 
                                Pre-Chorus 
e:---------------------------|-----------------------------------------------| 
B:---------------------------|-----------------------------------------------| 
G:---------------------------|-----------------------------------------------| 
D:---------------------------|--3----------5----------7----------2----------3| 
A:--2-2-2-2-2-2-2-2-3-2------|--3----------5----------7----------2----------3| 
E:----------------------5-3--|--1----------3----------5----------0----------1| 
  pm....................... 
 
 
 
                                                              Chorus 
e:------------------|---------------------|----------------|-----------------| 
B:------------------|---------------------|----------------|-----------------| 
G:------------------|------Verse-5--------|---Pre-Chorus---|--7---9---10---7-| 
D:----------5-------|--(same-as-verse-4)--|----------------|--7---9---10---7-| 
A:----------5-------|---------------------|----------------|--5---7----8---5-| 
E:----------3-------|---------------------|----------------|-----------------| 
 
 
 
 
 
e:---------------------------------------------------------------------------| 
B:---------------------------------------------------------------------------| 
G:-------------------------7---9---10---7-------------------------9---10----7| 
D:------7---9---10---7-----7---9---10---7-------7---9---10---12---9---10----7| 
A:------7---9---10---7-----5---7----8---5-------7---9---10---12---7----8----5| 
E:------5---7----8---5--------------------------5---7----8---10--------------| 
 
 
 
 
 
e:---------------------------------------------------------------------------| 
B:---------------------------------------------------------------------------| 
G:---9---10---7----------------------------7---9---10---7--------------------| 
D:---9---10---7-------7---9---10---7-------7---9---10---7--------------------| 
A:---7----8---7-------7---9---10---7-------5---7----8---5-----7-7-7----------| 
E:--------------------5---7----8---5--------------------------------7-7-7-4-4| 
                                                             
pm............... 
 
 
 
                       Interlude 1 
e:------------------|--------------------------------------------------------| 
B:------------------|--------------------------------------------------------| 
G:------------------|---------7----------5----------7-------------------7----| 
D:------------------|--7------7---5------5---3------7---5---5----7------7---5| 
A:------------------|--7------5---5------3---3------5---5---5----7------5---5| 
E:-4-0-0-0-1-1-3-3--|--5----------3----------1----------3---3----5----------3| 
  ................ 
 
 
 
                                        Interlude 2 
e:-----------------------------------|---------------------------------------| 
B:-----------------------------------|---------------------------------------| 
G:------5----------7------9------13--|--5---------------4-----------4--------| 
D:------5---3------7------9------13--|--5-----------6---5-----------5---6----| 
A:------3---3------5------7------11--|--3--3-3-3-3--6---2--2-2-2-2--2---6----| 
E:----------1------------------------|--------------4-------------------4--4-| 
                                         pm.......       pm.......        
pm.. 
 
 
 
 
e:---------------------------------------------------------------------------| 
B:---------------------------------------------------------------------------| 
G:-----------3-------3-------5---------------4-----------4-------------------| 
D:-------3---3-------3---3---5-----------6---5-----------5---6------3------5-| 
A:-------3---1--1-1--1---3---3--3-3-3-3--6---2--2-2-2-2--2---6------3------5-| 
E:4-4-4--1---------------1---------------4-------------------4------1------3-| 
  .....       pm...           pm.......       pm....... 
 
 
 
                                Interlude 1 
e:---------------------------|-----------------------------------------------| 
B:---------------------------|-----------------------------------------------| 
G:-----4---------------------|--------------7---------------5---------------7| 
D:-----4------5------8---7---|--7-----------7---5-----------5---3-----------7| 
A:-----2------5------8---8---|--7-----------5---5-----------3---3-----------5| 
E:------------3------6---5---|--5--5-5-5-5------3--3-3-3-3------1--1-1-1-1---| 
                                 pm.......       pm.......       pm....... 
 
 
 
 
e:---------------------------------------------------------------------------| 
B:---------------------------------------------------------------------------| 
G:-------------------------------7---------------5----------7------9------13-| 
D:---5-------5-------7-----------7---5-----------5---3------7------9------13-| 
A:---5-------5-------7-----------5---5-----------3---3------5------7------11-| 
E:---3--3-3--3--3-3--5--5-5-5-5------3--3-3-3-3------1-----------------------| 
      pm...   pm...   pm.......       pm....... 
 
 
 
                                                      Guitar in at (5:32) 
e:-----|---------------|-----------|---------------|-------------------------| 
B:-----|---------------|-----------|---------------|-------------------------| 
G:-----|--Interlude-2--|-----------|----Verse-6----|-------------------------| 
D:-----|---------------|---7---6---|--(no-guitar)--|--3--------5--------7----| 
A:-----|---------------|---7---7---|---------------|--3--------5--------7----| 
E:-----|---------------|---5---4---|---------------|--1--------3--------5----| 
 
 
 
 
                                          *3   ending 
e:------------------------------------------|--------------------------------| 
B:------------------------------------------|--------------------------------| 
G:------------------------------------------|--------------------------------| 
D:-------------3--------5--------7----------|--3--------5--------7----------3| 
A:-------------3--------5--------7----------|--3--------5--------7----------3| 
E:--------3-2--1--------3--------5----------|--1--------3--------5----------1| 
        pm... 
 
 
 
 
e:-------------------------------|-----| 
B:-------------------------------|-----| 
G:---------------------7---------|--End| 
D:----------2----------7---------|-----| 
A:----------2----------5---------|-----| 
E:----------0--------------------|-----| 
 
 
_______________________________________________________ 
Contribuição: Pedro Merlussi([email protected]) 

		  

See also:

tabs Sonata Arctica - Paid In Full tabs Sonata Arctica - Fade To Black tabs Sonata Arctica - Larger Than Life tabs Behexen - My Soul For His Glory
e-chords

Other versions:

tabs Sonata Arctica - Gravenimage
auto scroll beats size up size down change color hide chords drawings
tab show chords e-chords YouTube Clip e-chords hide all tabs e-chords go to top tab

share