Solitude Aeturnus

Mirror Of Sorrow

Solitude Aeturnus

tabs

by  UBIRBOMFIM

save to print version add songbook text version e-mail correct tuner
chordsukulelecavacokeyboardtabbassdrumsharmonicaflute Guitar Pro
close

there isn't a video lesson for this song

chords

Mirror Of Sorrow

	  		


Tuning: DGCFAE 

clean part 
e|------3------------2-------|-2-3-2----| 
B|---------------------------|-------3--| 
G|---4----4-------5-----5----|----------| 
D|--5-------5---4---------4--|----------| 
A|---------------------------|----------| 
E|-0----------0--------------|----------| 

heavy part 
e|---------------------------------------------------------------------------| 
B|---------------------------------------------------------------------------| 
G|---------------------------------------------------------------------------| 
D|--9----9--12--11---------9----9--12--11---11-12--11------------------------| 
A|--7----7--10--9----10----7----7--10--9----9--10--9-------------------------| 
E|-------------------8-------------------------------------------------------| 

solo rhythm 
e|---------------------------------------------------------------------------| 
B|---------------------------------------------------------------------------| 
G|---------------------------------------------------------------------------| 
D|-----------------------3-4-------------------------------------------------| 
A|-2-------5-3-----------1/2---2-----5-3-----------5-3-----------------------| 
E|-0--0-0--3-1-000-0-0-0-----0-0-0-0-3-1-000-4-3-0-3-1-----------------------| 
      m m      mmm m m m     m   m m     mmm m m m  
Solo #1                                                    T  T       T  T 
E|----------12---------12----------12-12----------12-12--17-17p12p8-17-17p12p8-22b-| 
B|-10-12-13----10-12-13---10-12-13-------10-12-13----------------------------------| 
G|---------------------------------------------------------------------------------| 
D|---------------------------------------------------------------------------------| 
A|---------------------------------------------------------------------------------| 
E|---------------------------------------------------------------------------------| 
                                                   T                 T     
e|-24-22-20----------------------------------------15p12p10p7h10h12h15p12p10p7h10h12h 
B|----------24-22-20-17----------------------15~~-------------------------------------| 
G|-------------------------------13---------------------------------------------------| 
D|----------------------13-15-17----17-15-13------------------------------------------| 
A|------------------------------------------------------------------------------------| 
E|------------------------------------------------------------------------------------| 
   T                T 
e|-17p12p10p7h10h12h15p12p10p7------14b-12-10-12~-----------12-14-15-14-12-17-| 
B|-------------------------------------------------12-13-16-------------------| 
G|-----------------------------9~~--------------------------------------------| 
D|----------------------------------------------------------------------------| 
A|----------------------------------------------------------------------------| 
E|----------------------------------------------------------------------------| 
                                                                      x2 
e|-15-14----------------------|-------------------10---------------------| 
B|-------16-13-12-------------|----------10-12-13----13-12-10------------| 
G|----------------14-12-11-9~-|-99-11-12----------------------12-11-99-o-| 
D|----------------------------|----------------------------------------o-| 
A|----------------------------|------------------------------------------| 
E|----------------------------|------------------------------------------| 
                                                                        end solo #1 
e|-------------------10-12----------12-14----------14-15---------15-17-24b~--| 
B|----------10-12-13-------12-13-15-------13-15-17-------15-17-19------------| 
G|-99-11-12------------------------------------------------------------------| 
D|---------------------------------------------------------------------------| 
A|---------------------------------------------------------------------------| 
E|---------------------------------------------------------------------------| 

 riff after solo 
e|---------------------------------------------------------------------------| 
B|---------------------------------------------------------------------------| 
G|---------------------------------------------------------------------------| 
D|-9----------------9---12--11-----------------------------------------------| 
A|-7--10--10/12/10--7---10--9------------------------------------------------| 
E|----8---8/-10/8------------------------------------------------------------| 

solo #2 
e|---------------------------------------------------------------------------| 
B|-17-17-15-13-13-15-13~-12-13-10-12-8-10-7-8-5-7-8-7-10-8-7~-5-7-7-8-8-10-10| 
G|---------------------------------------------------------------------------| 
D|---------------------------------------------------------------------------| 
A|---------------------------------------------------------------------------| 
E|---------------------------------------------------------------------------| 

e|---------------------------------------------------------------------------| 
B|-12-12-13-15-13-121312~--/20~-19-17-19-12~--22b-22-20-19~-20-19~-19-20-17--| 
G|---------------------------------------------------------------------------| 
D|---------------------------------------------------------------------------| 
A|---------------------------------------------------------------------------| 
E|---------------------------------------------------------------------------| 

e|---------------------------------------------------------------------------| 
B|-19-15-17-13-15-12-13-15-13-12-10-12-13-12-10------------------------------| 
G|----------------------------------------------11-12-14-12-11-9~--9-11-12---| 
D|---------------------------------------------------------------------------| 
A|---------------------------------------------------------------------------| 
E|---------------------------------------------------------------------------| 

e|---------------------------------------------------------------------------| 
B|---------------------------------------------------------------------------| 
G|-14-12-17-16~-16-14~-12-11-------------------------------------------------| 
D|---------------------------------------------------------------------------| 
A|---------------------------------------------------------------------------| 
E|---------------------------------------------------------------------------| 

Melodic part near end (5:19)                      repeat it a few times then end on 9 
e|------------------------------------------------------------------------------|---| 
B|------------------------------------------------------------------------------|---| 
G|-9-11-12--14-12h14p12-9-11-12--5-4~7-9-11-12--14-12h14p12-17-16~-16-14~-12-11-|-9-| 
D|------------------------------------------------------------------------------|---| 
A|------------------------------------------------------------------------------|---| 
E|------------------------------------------------------------------------------|---| 

e|--------------------------------------| 
B|--------------------------------------| 
G|--------------------------------------| 
D|--------------------------------------| 
A|-10-9--7--5--2------------------------| 
E|-8--7--5--3--0------------------------| 
************************************ 

| /   slide up 
| \   slide down 
| h   hammer-on 
| p   pull-off 
| ~   vibrato 
| +   harmonic 
| x   Mute note 
| b   Bend 
| pb  Pre-bend 
| br  Bend release 
| pbr Pre-bend release 
| brb Bend release bend 
| T   tap 
| m   palm mute 
************************************ 
		  

See also:

tabs Ira! - Vitrine Viva tabs Deep Purple - Black Knight tabs Deep Purple - Demonds Eye tabs Deep Purple - Smoke on the Water (ver. 2) tabs Deep Purple - Clearly Quite Absurd tabs Ira! - Envelheço na Cidade (intro)
e-chords

Other versions:

tabs Solitude Aeturnus - Mirror Of Sorrow
auto scroll beats size up size down change color hide chords drawings
tab show chords e-chords YouTube Clip e-chords hide all tabs e-chords go to top tab

share