Shoes And Socks Off

Tork Sport Tab

Shoes And Socks Off

Difficulty: nolevelnolevel

by tercmoraes

tuner correct add songbook print version text version save to e-mail
chordsukulelecavacokeyboardtabbassdrumsharmonicsflute Guitar Pro
close

there isn't a video lesson for this song

request
chords

Tork Sport

  		Standard Tuning  


Intro 

e|-------------------------------------------------| 
B|-------------------------------------------------| 
G|-------x--x--------x--x--------x--x--------x--x--| 
D|-x--x--x--x--x--x--x--x--x--x--x--x--x--x--x--x--| 
A|-x--x--x--x--x--x--x--x--x--x--x--x--x--x--x--x--| 
E|-x--x--x--x--x--x--x--x--x--x--x--x--x--x--x--x--| 

   Gm                                              F 
e|-------------------------------------------------------------------------------------------------| 
B|-------3--3--------3--3--------3--3--------3--3--------------------------------------------------| 
G|-3--3--3--3--3--3--3--3--3--3--3--3--3--3--3--3--------2--2--------2--2--------2--2--------2--2--| 
D|-0--0--0--0--0--0--0--0--0--0--0--0--0--0--0--0--x--x--x--x--x--x--x--x--x--x--x--x--x--x--x--x--| 
A|-x--x--x--x--x--x--x--x--x--x--x--x--x--x--x--x--3--3--3--3--3--3--3--3--3--3--3--3--3--3--3--3--| 
E|-3--3--3--3--3--3--3--3--3--3--3--3--3--3--3--3--1--1--1--1--1--1--1--1--1--1--1--1--1--1--1--1--| 

   C                                               G 
e|-------------------------------------------------------------------------------------------------| 
B|-------------------------------------------------------------------------------------------------| 
G|-9--9--9--9--9--9--9--9--9--9--9--9--9--9--9--9--4--4--4--4--4--4--4--4--4--4--4--4--4--4--4--4--| 
D|-x--x--x--x--x--x--x--x--x--x--x--x--x--x--x--x--x--x--x--x--x--x--x--x--x--x--x--x--x--x--x--x--| 
A|-10-10-10-10-10-10-10-10-10-10-10-10-10-10-10-10-5--5--5--5--5--5--5--5--5--5--5--5--5--5--5--5--| 
E|-8--8--8--8--8--8--8--8--8--8--8--8--8--8--8--8--3--3--3--3--3--3--3--3--3--3--3--3--3--3--3--3--| 


Verse 

   Gm                                              F 
e|-------------------------------------------------------------------------------------------------| 
B|-------3--3--------3--3--------3--3--------3--3--------------------------------------------------| 
G|-3--3--3--3--3--3--3--3--3--3--3--3--3--3--3--3--------2--2--------2--2--------2--2--------2--2--| 
D|-0--0--0--0--0--0--0--0--0--0--0--0--0--0--0--0--x--x--x--x--x--x--x--x--x--x--x--x--x--x--x--x--| 
A|-x--x--x--x--x--x--x--x--x--x--x--x--x--x--x--x--3--3--3--3--3--3--3--3--3--3--3--3--3--3--3--3--| 
E|-3--3--3--3--3--3--3--3--3--3--3--3--3--3--3--3--1--1--1--1--1--1--1--1--1--1--1--1--1--1--1--1--| 
   I      couldnt        move      if     I        wanted       to       Im  

   C                                               G 
e|-------------------------------------------------------------------------------------------------| 
B|-------------------------------------------------------------------------------------------------| 
G|-9--9--9--9--9--9--9--9--9--9--9--9--9--9--9--9--4--4--4--4--4--4--4--4--4--4--4--4--4--4--4--4--| 
D|-x--x--x--x--x--x--x--x--x--x--x--x--x--x--x--x--x--x--x--x--x--x--x--x--x--x--x--x--x--x--x--x--| 
A|-10-10-10-10-10-10-10-10-10-10-10-10-10-10-10-10-5--5--5--5--5--5--5--5--5--5--5--5--5--5--5--5--| 
E|-8--8--8--8--8--8--8--8--8--8--8--8--8--8--8--8--3--3--3--3--3--3--3--3--3--3--3--3--3--3--3--3--| 
   trying         to         catch       my        breath                                     The 

   Gm                                              F 
e|-------------------------------------------------------------------------------------------------| 
B|-------3--3--------3--3--------3--3--------3--3--------------------------------------------------| 
G|-3--3--3--3--3--3--3--3--3--3--3--3--3--3--3--3--------2--2--------2--2--------2--2--------2--2--| 
D|-0--0--0--0--0--0--0--0--0--0--0--0--0--0--0--0--x--x--x--x--x--x--x--x--x--x--x--x--x--x--x--x--| 
A|-x--x--x--x--x--x--x--x--x--x--x--x--x--x--x--x--3--3--3--3--3--3--3--3--3--3--3--3--3--3--3--3--| 
E|-3--3--3--3--3--3--3--3--3--3--3--3--3--3--3--3--1--1--1--1--1--1--1--1--1--1--1--1--1--1--1--1--| 
   radios            on             to             drown           out            sound       and 

   C                                                
e|--------------------------------------------------| 
B|--------------------------------------------------| 
G|-9--9--9--9--9--9--9--9--9--9--9--9--9--9--9--9---| 
D|-x--x--x--x--x--x--x--x--x--x--x--x--x--x--x--x---| 
A|-10-10-10-10-10-10-10-10-10-10-10-10-10-10-10-10--| 
E|-8--8--8--8--8--8--8--8--8--8--8--8--8--8--8--8---| 
   I         wake          up         like  


Chorus 

   Csus2                                           A#  
e|-------------------------------------------------------------------------------------------------| 
B|-------------------------------------------------------------------------------------------------| 
G|-8--8--8--8--8--8--8--8--8--8--8--8--8--8--8--8--7--7--7--7--7--7--7--7--7--7--7--7--7--7--7--7--| 
D|-0--0--0--0--0--0--0--0--0--0--0--0--0--0--0--0--x--x--x--x--x--x--x--x--x--x--x--x--x--x--x--x--| 
A|-x--x--x--x--x--x--x--x--x--x--x--x--x--x--x--x--8--8--8--8--8--8--8--8--8--8--8--8--8--8--8--8--| 
E|-8--8--8--8--8--8--8--8--8--8--8--8--8--8--8--8--6--6--6--6--6--6--6--6--6--6--6--6--6--6--6--6--| 
   this                                     What a difference                                  it  

   A#                                              Asus4                   A 
e|-------------------------------------------------------------------------------------------------| 
B|-------------------------------------------------------------------------------------------------| 
G|-7--7--7--7--7--7--7--7--7--7--7--7--7--7--7--7--7--7--7--7--7--7--7--7--6--6--6--6--6--6--6--6--| 
D|-x--x--x--x--x--x--x--x--x--x--x--x--x--x--x--x--x--x--x--x--x--x--x--x--x--x--x--x--x--x--x--x--| 
A|-8--8--8--8--8--8--8--8--8--8--8--8--8--8--8--8--8--8--8--8--8--8--8--8--7--7--7--7--7--7--7--7--| 
E|-6--6--6--6--6--6--6--6--6--6--6--6--6--6--6--6--5--5--5--5--5--5--5--5--5--5--5--5--5--5--5--5--| 
   makes                                    what a difference it           seems      with      a 

   C                                                
e|--------------------------------------------------| 
B|--------------------------------------------------| 
G|-9--9--9--9--9--9--9--9--9--9--9--9--9--9--9--9---| 
D|-x--x--x--x--x--x--x--x--x--x--x--x--x--x--x--x---| 
A|-10-10-10-10-10-10-10-10-10-10-10-10-10-10-10-10--| 
E|-8--8--8--8--8--8--8--8--8--8--8--8--8--8--8--8---| 
   time        delay                       What a  

   Csus2                                           A#  
e|-------------------------------------------------------------------------------------------------| 
B|-------------------------------------------------------------------------------------------------| 
G|-8--8--8--8--8--8--8--8--8--8--8--8--8--8--8--8--7--7--7--7--7--7--7--7--7--7--7--7--7--7--7--7--| 
D|-0--0--0--0--0--0--0--0--0--0--0--0--0--0--0--0--x--x--x--x--x--x--x--x--x--x--x--x--x--x--x--x--| 
A|-x--x--x--x--x--x--x--x--x--x--x--x--x--x--x--x--8--8--8--8--8--8--8--8--8--8--8--8--8--8--8--8--| 
E|-8--8--8--8--8--8--8--8--8--8--8--8--8--8--8--8--6--6--6--6--6--6--6--6--6--6--6--6--6--6--6--6--| 
   a difference                                 it makes                                   What a  

   A#                                              Asus4                   A 
e|-------------------------------------------------------------------------------------------------| 
B|-------------------------------------------------------------------------------------------------| 
G|-7--7--7--7--7--7--7--7--7--7--7--7--7--7--7--7--7--7--7--7--7--7--7--7--6--6--6--6--6--6--6--6--| 
D|-x--x--x--x--x--x--x--x--x--x--x--x--x--x--x--x--x--x--x--x--x--x--x--x--x--x--x--x--x--x--x--x--| 
A|-8--8--8--8--8--8--8--8--8--8--8--8--8--8--8--8--8--8--8--8--8--8--8--8--7--7--7--7--7--7--7--7--| 
E|-6--6--6--6--6--6--6--6--6--6--6--6--6--6--6--6--5--5--5--5--5--5--5--5--5--5--5--5--5--5--5--5--| 
   difference                        it   sucks    with      a      time   delay              and              

   C                                               G 
e|-------------------------------------------------------------------------------------------------| 
B|-------------------------------------------------------------------------------------------------| 
G|-9--9--9--9--9--9--9--9--9--9--9--9--9--9--9--9--4--4--4--4--4--4--4--4--4--4--4--4--4--4--4--4--| 
D|-x--x--x--x--x--x--x--x--x--x--x--x--x--x--x--x--x--x--x--x--x--x--x--x--x--x--x--x--x--x--x--x--| 
A|-10-10-10-10-10-10-10-10-10-10-10-10-10-10-10-10-5--5--5--5--5--5--5--5--5--5--5--5--5--5--5--5--| 
E|-8--8--8--8--8--8--8--8--8--8--8--8--8--8--8--8--3--3--3--3--3--3--3--3--3--3--3--3--3--3--3--3--| 
   and                  everythings                okay  


Post Chorus 

  Gm                                              F 
e|-------------------------------------------------------------------------------------------------| 
B|-------3--3--------3--3--------3--3--------3--3--------------------------------------------------| 
G|-3--3--3--3--3--3--3--3--3--3--3--3--3--3--3--3--------2--2--------2--2--------2--2--------2--2--| 
D|-0--0--0--0--0--0--0--0--0--0--0--0--0--0--0--0--x--x--x--x--x--x--x--x--x--x--x--x--x--x--x--x--| 
A|-x--x--x--x--x--x--x--x--x--x--x--x--x--x--x--x--3--3--3--3--3--3--3--3--3--3--3--3--3--3--3--3--| 
E|-3--3--3--3--3--3--3--3--3--3--3--3--3--3--3--3--1--1--1--1--1--1--1--1--1--1--1--1--1--1--1--1--| 

   C                                               G 
e|-------------------------------------------------------------------------------------------------| 
B|-------------------------------------------------------------------------------------------------| 
G|-9--9--9--9--9--9--9--9--9--9--9--9--9--9--9--9--4--4--4--4--4--4--4--4--4--4--4--4--4--4--4--4--| 
D|-x--x--x--x--x--x--x--x--x--x--x--x--x--x--x--x--x--x--x--x--x--x--x--x--x--x--x--x--x--x--x--x--| 
A|-10-10-10-10-10-10-10-10-10-10-10-10-10-10-10-10-5--5--5--5--5--5--5--5--5--5--5--5--5--5--5--5--| 
E|-8--8--8--8--8--8--8--8--8--8--8--8--8--8--8--8--3--3--3--3--3--3--3--3--3--3--3--3--3--3--3--3--| 

  Gm                                              F 
e|-------------------------------------------------------------------------------------------------| 
B|-------3--3--------3--3--------3--3--------3--3--------------------------------------------------| 
G|-3--3--3--3--3--3--3--3--3--3--3--3--3--3--3--3--------2--2--------2--2--------2--2--------2--2--| 
D|-0--0--0--0--0--0--0--0--0--0--0--0--0--0--0--0--x--x--x--x--x--x--x--x--x--x--x--x--x--x--x--x--| 
A|-x--x--x--x--x--x--x--x--x--x--x--x--x--x--x--x--3--3--3--3--3--3--3--3--3--3--3--3--3--3--3--3--| 
E|-3--3--3--3--3--3--3--3--3--3--3--3--3--3--3--3--1--1--1--1--1--1--1--1--1--1--1--1--1--1--1--1--| 

   C                                               G 
e|-------------------------------------------------------------------------------------------------| 
B|-------------------------------------------------------------------------------------------------| 
G|-9--9--9--9--9--9--9--9--9--9--9--9--9--9--9--9--4--4--4--4--4--4--4--4--4--4--4--4--4--4--4--4--| 
D|-x--x--x--x--x--x--x--x--x--x--x--x--x--x--x--x--x--x--x--x--x--x--x--x--x--x--x--x--x--x--x--x--| 
A|-10-10-10-10-10-10-10-10-10-10-10-10-10-10-10-10-5--5--5--5--5--5--5--5--5--5--5--5--5--5--5--5--| 
E|-8--8--8--8--8--8--8--8--8--8--8--8--8--8--8--8--3--3--3--3--3--3--3--3--3--3--3--3--3--3--3--3--| 


Verse 

   Gm                                              F 
e|-------------------------------------------------------------------------------------------------| 
B|-------3--3--------3--3--------3--3--------3--3--------------------------------------------------| 
G|-3--3--3--3--3--3--3--3--3--3--3--3--3--3--3--3--------2--2--------2--2--------2--2--------2--2--| 
D|-0--0--0--0--0--0--0--0--0--0--0--0--0--0--0--0--x--x--x--x--x--x--x--x--x--x--x--x--x--x--x--x--| 
A|-x--x--x--x--x--x--x--x--x--x--x--x--x--x--x--x--3--3--3--3--3--3--3--3--3--3--3--3--3--3--3--3--| 
E|-3--3--3--3--3--3--3--3--3--3--3--3--3--3--3--3--1--1--1--1--1--1--1--1--1--1--1--1--1--1--1--1--| 
   I            keep              waking           up            forgetting  

   C                                               G 
e|-------------------------------------------------------------------------------------------------| 
B|-------------------------------------------------------------------------------------------------| 
G|-9--9--9--9--9--9--9--9--9--9--9--9--9--9--9--9--4--4--4--4--4--4--4--4--4--4--4--4--4--4--4--4--| 
D|-x--x--x--x--x--x--x--x--x--x--x--x--x--x--x--x--x--x--x--x--x--x--x--x--x--x--x--x--x--x--x--x--| 
A|-10-10-10-10-10-10-10-10-10-10-10-10-10-10-10-10-5--5--5--5--5--5--5--5--5--5--5--5--5--5--5--5--| 
E|-8--8--8--8--8--8--8--8--8--8--8--8--8--8--8--8--3--3--3--3--3--3--3--3--3--3--3--3--3--3--3--3--| 
   that           we            havent             met  

   Gm                                              F 
e|-------------------------------------------------------------------------------------------------| 
B|-------3--3--------3--3--------3--3--------3--3--------------------------------------------------| 
G|-3--3--3--3--3--3--3--3--3--3--3--3--3--3--3--3--------2--2--------2--2--------2--2--------2--2--| 
D|-0--0--0--0--0--0--0--0--0--0--0--0--0--0--0--0--x--x--x--x--x--x--x--x--x--x--x--x--x--x--x--x--| 
A|-x--x--x--x--x--x--x--x--x--x--x--x--x--x--x--x--3--3--3--3--3--3--3--3--3--3--3--3--3--3--3--3--| 
E|-3--3--3--3--3--3--3--3--3--3--3--3--3--3--3--3--1--1--1--1--1--1--1--1--1--1--1--1--1--1--1--1--| 
   Listen                      to                  one           another   

   C                                                
e|--------------------------------------------------| 
B|--------------------------------------------------| 
G|-9--9--9--9--9--9--9--9--9--9--9--9--9--9--9--9---| 
D|-x--x--x--x--x--x--x--x--x--x--x--x--x--x--x--x---| 
A|-10-10-10-10-10-10-10-10-10-10-10-10-10-10-10-10--| 
E|-8--8--8--8--8--8--8--8--8--8--8--8--8--8--8--8---| 
   listening               to  


Chorus 

   Csus2                                           A#  
e|-------------------------------------------------------------------------------------------------| 
B|-------------------------------------------------------------------------------------------------| 
G|-8--8--8--8--8--8--8--8--8--8--8--8--8--8--8--8--7--7--7--7--7--7--7--7--7--7--7--7--7--7--7--7--| 
D|-0--0--0--0--0--0--0--0--0--0--0--0--0--0--0--0--x--x--x--x--x--x--x--x--x--x--x--x--x--x--x--x--| 
A|-x--x--x--x--x--x--x--x--x--x--x--x--x--x--x--x--8--8--8--8--8--8--8--8--8--8--8--8--8--8--8--8--| 
E|-8--8--8--8--8--8--8--8--8--8--8--8--8--8--8--8--6--6--6--6--6--6--6--6--6--6--6--6--6--6--6--6--| 
   breath                                   What a difference                                  it  

   A#                                              Asus4                   A 
e|-------------------------------------------------------------------------------------------------| 
B|-------------------------------------------------------------------------------------------------| 
G|-7--7--7--7--7--7--7--7--7--7--7--7--7--7--7--7--7--7--7--7--7--7--7--7--6--6--6--6--6--6--6--6--| 
D|-x--x--x--x--x--x--x--x--x--x--x--x--x--x--x--x--x--x--x--x--x--x--x--x--x--x--x--x--x--x--x--x--| 
A|-8--8--8--8--8--8--8--8--8--8--8--8--8--8--8--8--8--8--8--8--8--8--8--8--7--7--7--7--7--7--7--7--| 
E|-6--6--6--6--6--6--6--6--6--6--6--6--6--6--6--6--5--5--5--5--5--5--5--5--5--5--5--5--5--5--5--5--| 
   makes                                    what a difference it           sucks      with      a 

   C                                                
e|--------------------------------------------------| 
B|--------------------------------------------------| 
G|-9--9--9--9--9--9--9--9--9--9--9--9--9--9--9--9---| 
D|-x--x--x--x--x--x--x--x--x--x--x--x--x--x--x--x---| 
A|-10-10-10-10-10-10-10-10-10-10-10-10-10-10-10-10--| 
E|-8--8--8--8--8--8--8--8--8--8--8--8--8--8--8--8---| 
   time        delay                       What a  

   Csus2                                           A#  
e|-------------------------------------------------------------------------------------------------| 
B|-------------------------------------------------------------------------------------------------| 
G|-8--8--8--8--8--8--8--8--8--8--8--8--8--8--8--8--7--7--7--7--7--7--7--7--7--7--7--7--7--7--7--7--| 
D|-0--0--0--0--0--0--0--0--0--0--0--0--0--0--0--0--x--x--x--x--x--x--x--x--x--x--x--x--x--x--x--x--| 
A|-x--x--x--x--x--x--x--x--x--x--x--x--x--x--x--x--8--8--8--8--8--8--8--8--8--8--8--8--8--8--8--8--| 
E|-8--8--8--8--8--8--8--8--8--8--8--8--8--8--8--8--6--6--6--6--6--6--6--6--6--6--6--6--6--6--6--6--| 
   a difference                                 it makes                                   What a  

   A#                                              Asus4                   A 
e|-------------------------------------------------------------------------------------------------| 
B|-------------------------------------------------------------------------------------------------| 
G|-7--7--7--7--7--7--7--7--7--7--7--7--7--7--7--7--7--7--7--7--7--7--7--7--6--6--6--6--6--6--6--6--| 
D|-x--x--x--x--x--x--x--x--x--x--x--x--x--x--x--x--x--x--x--x--x--x--x--x--x--x--x--x--x--x--x--x--| 
A|-8--8--8--8--8--8--8--8--8--8--8--8--8--8--8--8--8--8--8--8--8--8--8--8--7--7--7--7--7--7--7--7--| 
E|-6--6--6--6--6--6--6--6--6--6--6--6--6--6--6--6--5--5--5--5--5--5--5--5--5--5--5--5--5--5--5--5--| 
   difference                        it   sucks    with      a      time   delay              and              

   C                                               G 
e|-------------------------------------------------------------------------------------------------| 
B|-------------------------------------------------------------------------------------------------| 
G|-9--9--9--9--9--9--9--9--9--9--9--9--9--9--9--9--4--4--4--4--4--4--4--4--4--4--4--4--4--4--4--4--| 
D|-x--x--x--x--x--x--x--x--x--x--x--x--x--x--x--x--x--x--x--x--x--x--x--x--x--x--x--x--x--x--x--x--| 
A|-10-10-10-10-10-10-10-10-10-10-10-10-10-10-10-10-5--5--5--5--5--5--5--5--5--5--5--5--5--5--5--5--| 
E|-8--8--8--8--8--8--8--8--8--8--8--8--8--8--8--8--3--3--3--3--3--3--3--3--3--3--3--3--3--3--3--3--| 
   and                  everythings                okay  


Outro 

   Gm                                              F 
e|-------------------------------------------------------------------------------------------------| 
B|-------3--3--------3--3--------3--3--------3--3--------------------------------------------------| 
G|-3--3--3--3--3--3--3--3--3--3--3--3--3--3--3--3--------2--2--------2--2--------2--2--------2--2--| 
D|-0--0--0--0--0--0--0--0--0--0--0--0--0--0--0--0--x--x--x--x--x--x--x--x--x--x--x--x--x--x--x--x--| 
A|-x--x--x--x--x--x--x--x--x--x--x--x--x--x--x--x--3--3--3--3--3--3--3--3--3--3--3--3--3--3--3--3--| 
E|-3--3--3--3--3--3--3--3--3--3--3--3--3--3--3--3--1--1--1--1--1--1--1--1--1--1--1--1--1--1--1--1--| 

   C                                               G 
e|-------------------------------------------------------------------------------------------------| 
B|-------------------------------------------------------------------------------------------------| 
G|-9--9--9--9--9--9--9--9--9--9--9--9--9--9--9--9--4--4--4--4--4--4--4--4--4--4--4--4--4--4--4--4--| 
D|-x--x--x--x--x--x--x--x--x--x--x--x--x--x--x--x--x--x--x--x--x--x--x--x--x--x--x--x--x--x--x--x--| 
A|-10-10-10-10-10-10-10-10-10-10-10-10-10-10-10-10-5--5--5--5--5--5--5--5--5--5--5--5--5--5--5--5--| 
E|-8--8--8--8--8--8--8--8--8--8--8--8--8--8--8--8--3--3--3--3--3--3--3--3--3--3--3--3--3--3--3--3--| 

   Gm                                              F 
e|-------------------------------------------------------------------------------------------------| 
B|-------3--3--------3--3--------3--3--------3--3--------------------------------------------------| 
G|-3--3--3--3--3--3--3--3--3--3--3--3--3--3--3--3--------2--2--------2--2--------2--2--------2--2--| 
D|-0--0--0--0--0--0--0--0--0--0--0--0--0--0--0--0--x--x--x--x--x--x--x--x--x--x--x--x--x--x--x--x--| 
A|-x--x--x--x--x--x--x--x--x--x--x--x--x--x--x--x--3--3--3--3--3--3--3--3--3--3--3--3--3--3--3--3--| 
E|-3--3--3--3--3--3--3--3--3--3--3--3--3--3--3--3--1--1--1--1--1--1--1--1--1--1--1--1--1--1--1--1--| 

   C                                               G 
e|-------------------------------------------------------------------------------------------------| 
B|-------------------------------------------------------------------------------------------------| 
G|-9--9--9--9--9--9--9--9--9--9--9--9--9--9--9--9--4--4--4--4--4--4--4--4--4--4--4--4--4--4--4--4--| 
D|-x--x--x--x--x--x--x--x--x--x--x--x--x--x--x--x--x--x--x--x--x--x--x--x--x--x--x--x--x--x--x--x--| 
A|-10-10-10-10-10-10-10-10-10-10-10-10-10-10-10-10-5--5--5--5--5--5--5--5--5--5--5--5--5--5--5--5--| 
E|-8--8--8--8--8--8--8--8--8--8--8--8--8--8--8--8--3--3--3--3--3--3--3--3--3--3--3--3--3--3--3--3--| 

   Gm                                              F 
e|-------------------------------------------------------------------------------------------------| 
B|-------3--3--------3--3--------3--3--------3--3--------------------------------------------------| 
G|-3--3--3--3--3--3--3--3--3--3--3--3--3--3--3--3--------2--2--------2--2--------2--2--------2--2--| 
D|-0--0--0--0--0--0--0--0--0--0--0--0--0--0--0--0--x--x--x--x--x--x--x--x--x--x--x--x--x--x--x--x--| 
A|-x--x--x--x--x--x--x--x--x--x--x--x--x--x--x--x--3--3--3--3--3--3--3--3--3--3--3--3--3--3--3--3--| 
E|-3--3--3--3--3--3--3--3--3--3--3--3--3--3--3--3--1--1--1--1--1--1--1--1--1--1--1--1--1--1--1--1--| 

   C                                               G 
e|-------------------------------------------------------------------------------------------------| 
B|-------------------------------------------------------------------------------------------------| 
G|-9--9--9--9--9--9--9--9--9--9--9--9--9--9--9--9--4--4--4--4--4--4--4--4--4--4--4--4--4--4--4--4--| 
D|-x--x--x--x--x--x--x--x--x--x--x--x--x--x--x--x--x--x--x--x--x--x--x--x--x--x--x--x--x--x--x--x--| 
A|-10-10-10-10-10-10-10-10-10-10-10-10-10-10-10-10-5--5--5--5--5--5--5--5--5--5--5--5--5--5--5--5--| 
E|-8--8--8--8--8--8--8--8--8--8--8--8--8--8--8--8--3--3--3--3--3--3--3--3--3--3--3--3--3--3--3--3--| 

   Gm                                               
e|-------------------------------------------------------------------------------------------------| 
B|-------3--3--------3--3--------3--3--------3--3--------------------------------------------------| 
G|-3--3--3--3--3--3--3--3--3--3--3--3--3--3--3--3--------x--x--------x--x--------x--x--------x--x--| 
D|-0--0--0--0--0--0--0--0--0--0--0--0--0--0--0--0--x--x--x--x--x--x--x--x--x--x--x--x--x--x--x--x--| 
A|-x--x--x--x--x--x--x--x--x--x--x--x--x--x--x--x--x--x--x--x--x--x--x--x--x--x--x--x--x--x--x--x--| 
E|-3--3--3--3--3--3--3--3--3--3--3--3--3--3--3--3--x--x--x--x--x--x--x--x--x--x--x--x--x--x--x--x--| 

                                                   
e|-------------------------------------------------------------------------------------------------| 
B|-------------------------------------------------------------------------------------------------| 
G|-------x--x--------x--x--------x--x--------x--x--------x--x--------x--x--------x--x--------x--x--| 
D|-x--x--x--x--x--x--x--x--x--x--x--x--x--x--x--x--x--x--x--x--x--x--x--x--x--x--x--x--x--x--x--x--| 
A|-x--x--x--x--x--x--x--x--x--x--x--x--x--x--x--x--x--x--x--x--x--x--x--x--x--x--x--x--x--x--x--x--| 
E|-x--x--x--x--x--x--x--x--x--x--x--x--x--x--x--x--x--x--x--x--x--x--x--x--x--x--x--x--x--x--x--x--| 



************************************ 

| x   Dead note 

************************************ 
	  

Full key step upFull key step up
Half key step upHalf key step up
Half key step downHalf key step down
Full key step downFull key step down
Search Paypal
auto scroll beats size up size down change color hide chords drawings
tab show chords e-chords YouTube Clip e-chords hide all tabs e-chords go to top tab

share with facebook