Shitfish

Stomach Acid

Shitfish

tabs

save to print version add songbook text version e-mail correct tuner
chordsukulelecavacokeyboardtabbassdrumsharmonicaflute Guitar Pro
close

there isn't a video lesson for this song

chords

Stomach Acid

	  		Music by Jacob Uljans 
Lyrics by Paul Zula 
 
Tab transcribed by Mookie Blaylock, 11 Sep 1997 
 
Introduction 
 
E-------------------------------------- 
B-------------------------------------- 
G-------------------------------------- 
D----7-6-5-6-7-6-5-6-7-6-5--3---3-3-3-- 
A----7-6-5-6-7-6-5-6-7-6-5--3---3-3-3-- 
D----7-6-5-6-7-6-5-6-7-6-5--3---3-3-3-- 
 
E------------------------ 
B------------------------ 
G------------------------ 
D----7-6-5-6-7-6-5--10--- 
A----7-6-5-6-7-6-5--10--- 
D----7-6-5-6-7-6-5--10--- 
 
E--------------------------------------------- 
B--------------------------------------------- 
G--------------------------------------------- 
D----7-7--5-5--3---3-3---7-7--5-5------10-10-- 
A----7-7--5-5--3---3-3---7-7--5-5------10-10-- 
D----7-7--5-5--3---3-3---7-7--5-5------10-10-- 
 
Verse 
 
E------------------------ 
B------------------------ 
G------------------------ 
D----7-7--5--5-5-5-5--3-- 
A----7-7--5--5-5-5-5--3-- 
D----7-7--5--5-5-5-5--3-- 
 
Chorus					Bridge 
 
E----------------------- | --- 
B----------------------- | --- 
G----------------------- | --- 
D----7----5----3----5--- | -2- 
A----7----5----3----5--- | -2- 
D----7----5----3----5--- | -2- 
 
Format: 
 
Intro 
Verse 
Chorus 
Verse 
Chorus and Bridge 
Verse 
Chorus 
Intro out 
 
 

		  

See also:

tabs Mi-Sex - Computer Games tabs Nick Barker - Come up and see me (Make me smile) tabs Lee Kernaghan - Hat Town tabs Xavier Rudd - Green Spandex tabs The Vines - Outatheway tabs The Vines - Ride (ver. 2)
e-chords

Other versions:

tabs Shitfish - Stomach Acid
auto scroll beats size up size down change color hide chords drawings
tab show chords e-chords YouTube Clip e-chords hide all tabs e-chords go to top tab

share