Shitfish

Felate

Shitfish

tabs

save to print version add songbook text version e-mail correct tuner
chordsukulelecavacokeyboardtabbassdrumsharmonicaflute Guitar Pro
close

there isn't a video lesson for this song

chords

Felate

	  		I heard this song and it sounded really cool. 
Here is my tabbed version: 
 
___________________ 
Key:               | 
> = bend up 1 tone | 
< = bend back down | 
___________________ 
 
 
D 3--3--3-3-3-------------|3--3--3-3-3-------------|   
A 1--1--1-1-0-5--5--5-5-5-|1--1--1-1-0-5--5--5-5-7-| 
E ------------3--3--3-3-3-|------------3--3--3-3-5-| 
 
 
D 3--3--3-3-3-------------|3--3--3-3-3-------------|   
A 1--1--1-1-0-5--5--5-5-5-|1--1--1-1-0-5--5--5-5-7-| 
E ------------3--3--3-3-3-|------------3--3--3-3-5-|  
 
                                             (let ring)  
e ------------------------|------------------0-----| 
B ------------------------|--------------4>---<4---| 
G ------------------------|------------------------| 
D 3--3--3-3-3-------------|3------3----------------| 
A 1--1--1-1-0-5--5--5-5-5-|3------3----------------| 
E ------------3--3--3-3-2-|1------1----------------| 
 
e ------------------0-----|------------------0-----| 
B --------------4>---<4---|--------------4>---<4---| 
G ------------------------|------------------------| 
D 3------3----------------|3------3----------------| 
A 3------3----------------|3------3----------------| 
E 1------1----------------|1------1----------------| 
 
e ------------------0-----| 
B --------------4>---<4---| 
G ------------------------| 
D 3------3----------------| 
A 3------3----------------| 
E 1------1----------------| 
 
(above) x2 
solo 
(above) x1 
1st 2 bars x4 
 
John Burroughs 1997 
 
 

		  

See also:

tabs Mi-Sex - Computer Games tabs Nick Barker - Come up and see me (Make me smile) tabs Lee Kernaghan - Hat Town tabs Xavier Rudd - Green Spandex tabs The Vines - Outatheway tabs The Vines - Ride (ver. 2)
e-chords

Other versions:

tabs Shitfish - Felate
auto scroll beats size up size down change color hide chords drawings
tab show chords e-chords YouTube Clip e-chords hide all tabs e-chords go to top tab

share